0
SECTION
2
HEADER
9
$INSUNITS
70
4
9
$ACADVER
1
AC1014
9
$HANDSEED
5
FFFF
0
ENDSEC
0
SECTION
2
TABLES
0
TABLE
2
VPORT
5
8
100
AcDbSymbolTable
0
ENDTAB
0
TABLE
2
LTYPE
5
5
100
AcDbSymbolTable
0
LTYPE
5
14
100
AcDbSymbolTableRecord
100
AcDbLinetypeTableRecord
2
BYBLOCK
70
0
0
LTYPE
5
15
100
AcDbSymbolTableRecord
100
AcDbLinetypeTableRecord
2
BYLAYER
70
0
0
ENDTAB
0
TABLE
2
LAYER
5
2
100
AcDbSymbolTable
70
2
0
LAYER
5
50
100
AcDbSymbolTableRecord
100
AcDbLayerTableRecord
2
0
70
0
6
CONTINUOUS
0
ENDTAB
0
TABLE
2
STYLE
5
3
100
AcDbSymbolTable
70
1
0
STYLE
5
11
100
AcDbSymbolTableRecord
100
AcDbTextStyleTableRecord
2
STANDARD
70
0
0
ENDTAB
0
TABLE
2
VIEW
5
6
100
AcDbSymbolTable
70
0
0
ENDTAB
0
TABLE
2
UCS
5
7
100
AcDbSymbolTable
70
0
0
ENDTAB
0
TABLE
2
APPID
5
9
100
AcDbSymbolTable
70
2
0
APPID
5
12
100
AcDbSymbolTableRecord
100
AcDbRegAppTableRecord
2
ACAD
70
0
0
ENDTAB
0
TABLE
2
DIMSTYLE
5
A
100
AcDbSymbolTable
70
1
0
ENDTAB
0
TABLE
2
BLOCK_RECORD
5
1
100
AcDbSymbolTable
70
1
0
BLOCK_RECORD
5
1F
100
AcDbSymbolTableRecord
100
AcDbBlockTableRecord
2
*MODEL_SPACE
0
BLOCK_RECORD
5
1B
100
AcDbSymbolTableRecord
100
AcDbBlockTableRecord
2
*PAPER_SPACE
0
ENDTAB
0
ENDSEC
0
SECTION
2
BLOCKS
0
BLOCK
5
20
100
AcDbEntity
100
AcDbBlockBegin
2
*MODEL_SPACE
0
ENDBLK
5
21
100
AcDbEntity
100
AcDbBlockEnd
0
BLOCK
5
1C
100
AcDbEntity
100
AcDbBlockBegin
2
*PAPER_SPACE
0
ENDBLK
5
1D
100
AcDbEntity
100
AcDbBlockEnd
0
ENDSEC
0
SECTION
2
ENTITIES
0
CIRCLE
5
100
100
AcDbEntity
8
0
100
AcDbCircle
10
39.549999999999827
20
-130.43200000000004
30
0
40
2.0999999999999908
210
0
220
-0
230
1
0
CIRCLE
5
101
100
AcDbEntity
8
0
100
AcDbCircle
10
106.04999999999977
20
-130.43200000000004
30
0
40
2.0999999999999908
210
0
220
0
230
1
0
CIRCLE
5
102
100
AcDbEntity
8
0
100
AcDbCircle
10
39.549999999999827
20
-106.63200000000005
30
0
40
2.0999999999999908
210
0
220
-0
230
1
0
CIRCLE
5
103
100
AcDbEntity
8
0
100
AcDbCircle
10
106.04999999999977
20
-106.63200000000005
30
0
40
2.0999999999999908
210
0
220
0
230
1
0
CIRCLE
5
104
100
AcDbEntity
8
0
100
AcDbCircle
10
103.00000000000014
20
-160.49999999999989
30
0
40
4.2500000000000071
210
-0
220
0
230
1
0
CIRCLE
5
105
100
AcDbEntity
8
0
100
AcDbCircle
10
-103
20
-160.50000000000006
30
0
40
4.2500000000000071
210
0
220
-0
230
1
0
CIRCLE
5
106
100
AcDbEntity
8
0
100
AcDbCircle
10
103.00000000000009
20
43.5
30
0
40
4.2500000000000071
210
0
220
0
230
1
0
CIRCLE
5
107
100
AcDbEntity
8
0
100
AcDbCircle
10
-103.00000000000009
20
43.5
30
0
40
4.2500000000000071
210
0
220
-0
230
1
0
CIRCLE
5
108
100
AcDbEntity
8
0
100
AcDbCircle
10
-105.00000000000007
20
-97.5
30
0
40
2.1499999999999986
210
0
220
0
230
1
0
CIRCLE
5
109
100
AcDbEntity
8
0
100
AcDbCircle
10
-105.00000000000007
20
-82.5
30
0
40
2.1499999999999986
210
0
220
0
230
1
0
CIRCLE
5
110
100
AcDbEntity
8
0
100
AcDbCircle
10
-90.000000000000071
20
-82.5
30
0
40
2.1499999999999986
210
0
220
0
230
1
0
CIRCLE
5
111
100
AcDbEntity
8
0
100
AcDbCircle
10
-105.00000000000007
20
10.499999999999998
30
0
40
2.1499999999999986
210
0
220
-0
230
1
0
CIRCLE
5
112
100
AcDbEntity
8
0
100
AcDbCircle
10
-90.000000000000071
20
10.499999999999998
30
0
40
2.1499999999999986
210
0
220
-0
230
1
0
CIRCLE
5
113
100
AcDbEntity
8
0
100
AcDbCircle
10
-105.00000000000007
20
25.5
30
0
40
2.1499999999999986
210
0
220
-0
230
1
0
LWPOLYLINE
5
114
100
AcDbEntity
8
0
100
AcDbPolyline
90
4
70
1
43
0.0
10
-105.00000000000007
20
-49.5
10
-105.00000000000007
20
-41.5
10
-100.00000000000007
20
-41.5
10
-100.00000000000007
20
-49.5
0
LWPOLYLINE
5
115
100
AcDbEntity
8
0
100
AcDbPolyline
90
4
70
1
43
0.0
10
-105.00000000000007
20
-29.5
10
-105.00000000000007
20
-21.500000000000004
10
-100.00000000000007
20
-21.500000000000004
10
-100.00000000000007
20
-29.5
0
LWPOLYLINE
5
116
100
AcDbEntity
8
0
100
AcDbPolyline
90
6
70
1
43
0.0
10
-105.00000000000007
20
-9.5000000000000018
10
-105.00000000000007
20
0.49999999999999822
10
-95.000001415610313
20
0.49999999999998934
10
-95.000001415610313
20
-4.5000000000000107
10
-100.00000000000007
20
-4.5000000000000107
10
-100.00000000000007
20
-9.5000000000000018
0
LWPOLYLINE
5
117
100
AcDbEntity
8
0
100
AcDbPolyline
90
6
70
1
43
0.0
10
-105.00000000000007
20
-61.5
10
-100.00000000000007
20
-61.5
10
-100.00000000000007
20
-67.5
10
-95.000001415610313
20
-67.5
10
-95.000001415610313
20
-72.5
10
-105.00000000000007
20
-72.5
0
LWPOLYLINE
5
118
100
AcDbEntity
8
0
100
AcDbPolyline
90
4
70
1
43
0.0
10
-85.000001415610313
20
-72.5
10
-85.000001415610313
20
-67.5
10
-75.000001415610313
20
-67.5
10
-75.000001415610313
20
-72.5
0
LWPOLYLINE
5
119
100
AcDbEntity
8
0
100
AcDbPolyline
90
4
70
1
43
0.0
10
-65.000001415610313
20
-72.5
10
-65.000001415610313
20
-67.5
10
-55.000001415610313
20
-67.5
10
-55.000001415610313
20
-72.5
0
LWPOLYLINE
5
120
100
AcDbEntity
8
0
100
AcDbPolyline
90
4
70
1
43
0.0
10
-45.000001415610313
20
-72.5
10
-45.000001415610313
20
-67.5
10
-35.000001415610313
20
-67.5
10
-35.000001415610313
20
-72.5
0
LWPOLYLINE
5
121
100
AcDbEntity
8
0
100
AcDbPolyline
90
4
70
1
43
0.0
10
-25.000001415610313
20
-72.5
10
-25.000001415610313
20
-67.5
10
-15.000001415610313
20
-67.5
10
-15.000001415610313
20
-72.5
0
LWPOLYLINE
5
122
100
AcDbEntity
8
0
100
AcDbPolyline
90
4
70
1
43
0.0
10
-5.0000014156103134
20
-72.5
10
-5.0000014156103134
20
-67.5
10
4.9999985843896866
20
-67.5
10
4.9999985843896866
20
-72.5
0
LWPOLYLINE
5
123
100
AcDbEntity
8
0
100
AcDbPolyline
90
4
70
1
43
0.0
10
14.999998584389687
20
-72.5
10
14.999998584389687
20
-67.5
10
24.999998584389687
20
-67.5
10
24.999998584389687
20
-72.5
0
LWPOLYLINE
5
124
100
AcDbEntity
8
0
100
AcDbPolyline
90
4
70
1
43
0.0
10
34.999998584389687
20
-72.5
10
34.999998584389687
20
-67.5
10
44.999998584389687
20
-67.5
10
44.999998584389687
20
-72.5
0
LWPOLYLINE
5
125
100
AcDbEntity
8
0
100
AcDbPolyline
90
4
70
1
43
0.0
10
54.999998584389687
20
-72.5
10
54.999998584389687
20
-67.5
10
64.999998584389687
20
-67.5
10
64.999998584389687
20
-72.5
0
LWPOLYLINE
5
126
100
AcDbEntity
8
0
100
AcDbPolyline
90
4
70
1
43
0.0
10
74.999998584389687
20
-72.5
10
74.999998584389687
20
-67.5
10
84.999998584389687
20
-67.5
10
84.999998584389687
20
-72.5
0
LWPOLYLINE
5
127
100
AcDbEntity
8
0
100
AcDbPolyline
90
6
70
1
43
0.0
10
94.999998584389687
20
-72.5
10
94.999998584389687
20
-67.5
10
100
20
-67.5
10
100
20
-61.5
10
104.99999999999997
20
-61.5
10
104.99999999999997
20
-72.5
0
LWPOLYLINE
5
128
100
AcDbEntity
8
0
100
AcDbPolyline
90
4
70
1
43
0.0
10
-85.000001415610313
20
-4.5000000000000107
10
-85.000001415610313
20
0.49999999999998934
10
-75.000001415610313
20
0.49999999999998934
10
-75.000001415610313
20
-4.5000000000000107
0
LWPOLYLINE
5
129
100
AcDbEntity
8
0
100
AcDbPolyline
90
4
70
1
43
0.0
10
-65.000001415610313
20
-4.5000000000000107
10
-65.000001415610313
20
0.49999999999998934
10
-55.000001415610313
20
0.49999999999998934
10
-55.000001415610313
20
-4.5000000000000107
0
LWPOLYLINE
5
130
100
AcDbEntity
8
0
100
AcDbPolyline
90
4
70
1
43
0.0
10
-45.000001415610313
20
-4.5000000000000107
10
-45.000001415610313
20
0.49999999999998934
10
-35.000001415610313
20
0.49999999999998934
10
-35.000001415610313
20
-4.5000000000000107
0
LWPOLYLINE
5
131
100
AcDbEntity
8
0
100
AcDbPolyline
90
4
70
1
43
0.0
10
-25.000001415610313
20
-4.5000000000000107
10
-25.000001415610313
20
0.49999999999998934
10
-15.000001415610313
20
0.49999999999998934
10
-15.000001415610313
20
-4.5000000000000107
0
LWPOLYLINE
5
132
100
AcDbEntity
8
0
100
AcDbPolyline
90
4
70
1
43
0.0
10
-5.0000014156103134
20
-4.5000000000000107
10
-5.0000014156103134
20
0.49999999999998934
10
4.9999985843896866
20
0.49999999999998934
10
4.9999985843896866
20
-4.5000000000000107
0
LWPOLYLINE
5
133
100
AcDbEntity
8
0
100
AcDbPolyline
90
4
70
1
43
0.0
10
14.999998584389687
20
-4.5000000000000107
10
14.999998584389687
20
0.49999999999998934
10
24.999998584389687
20
0.49999999999998934
10
24.999998584389687
20
-4.5000000000000107
0
LWPOLYLINE
5
134
100
AcDbEntity
8
0
100
AcDbPolyline
90
4
70
1
43
0.0
10
34.999998584389687
20
-4.5000000000000107
10
34.999998584389687
20
0.49999999999998934
10
44.999998584389687
20
0.49999999999998934
10
44.999998584389687
20
-4.5000000000000107
0
LWPOLYLINE
5
135
100
AcDbEntity
8
0
100
AcDbPolyline
90
4
70
1
43
0.0
10
54.999998584389687
20
-4.5000000000000107
10
54.999998584389687
20
0.49999999999998934
10
64.999998584389687
20
0.49999999999998934
10
64.999998584389687
20
-4.5000000000000107
0
LWPOLYLINE
5
136
100
AcDbEntity
8
0
100
AcDbPolyline
90
4
70
1
43
0.0
10
74.999998584389687
20
-4.5000000000000107
10
74.999998584389687
20
0.49999999999998934
10
84.999998584389687
20
0.49999999999998934
10
84.999998584389687
20
-4.5000000000000107
0
LWPOLYLINE
5
137
100
AcDbEntity
8
0
100
AcDbPolyline
90
4
70
1
43
0.0
10
115.00000000000011
20
55.5
10
-115.00000000000011
20
55.499999999999929
10
-115.00000000000003
20
-172.5
10
114.99999999999997
20
-172.49999999999986
0
LWPOLYLINE
5
138
100
AcDbEntity
8
0
100
AcDbPolyline
90
6
70
1
43
0.0
10
94.999998584389687
20
-4.5000000000000107
10
94.999998584389687
20
0.49999999999998934
10
104.99999999999997
20
0.49999999999998934
10
104.99999999999997
20
-9.5000000000000018
10
100
20
-9.5000000000000018
10
100
20
-4.5000000000000107
0
LWPOLYLINE
5
139
100
AcDbEntity
8
0
100
AcDbPolyline
90
4
70
1
43
0.0
10
100
20
-29.5
10
100
20
-21.500000000000004
10
104.99999999999997
20
-21.500000000000004
10
104.99999999999997
20
-29.5
0
LWPOLYLINE
5
140
100
AcDbEntity
8
0
100
AcDbPolyline
90
4
70
1
43
0.0
10
100
20
-49.5
10
100
20
-41.5
10
104.99999999999997
20
-41.5
10
104.99999999999997
20
-49.5
0
ENDSEC
0
SECTION
2
OBJECTS
0
DICTIONARY
5
C
100
AcDbDictionary
3
ACAD_GROUP
350
D
3
ACAD_MLINESTYLE
350
17
0
DICTIONARY
5
D
100
AcDbDictionary
0
DICTIONARY
5
1A
330
C
100
AcDbDictionary
0
DICTIONARY
5
17
100
AcDbDictionary
0
ENDSEC
0
EOF
