  999
file created by SolveSpace
  0
SECTION
  2
HEADER
  9
$ACADVER
  1
AC1006
  9
$ANGDIR
  70
0
  9
$AUNITS
  70
0
  9
$AUPREC
  70
0
  9
$INSBASE
  10
0.0
  20
0.0
  30
0.0
  9
$EXTMIN
  10
0.0
  20
0.0
  9
$EXTMAX
  10
10000.0
  20
10000.0
  0
ENDSEC
  0
SECTION
  2
ENTITIES
  0
LINE
  8
0
  10
-27.181353
  20
17.817702
  30
0.000000
  11
-27.442717
  21
17.730581
  31
0.000000
  0
LINE
  8
0
  10
-27.442717
  20
17.730581
  30
0.000000
  11
-27.616959
  21
17.469218
  31
0.000000
  0
LINE
  8
0
  10
-27.616959
  20
17.469218
  30
0.000000
  11
-27.704080
  21
17.033612
  31
0.000000
  0
LINE
  8
0
  10
-27.704080
  20
17.033612
  30
0.000000
  11
-27.704080
  21
16.772248
  31
0.000000
  0
LINE
  8
0
  10
-27.704080
  20
16.772248
  30
0.000000
  11
-27.616959
  21
16.336642
  31
0.000000
  0
LINE
  8
0
  10
-27.616959
  20
16.336642
  30
0.000000
  11
-27.442717
  21
16.075278
  31
0.000000
  0
LINE
  8
0
  10
-27.442717
  20
16.075278
  30
0.000000
  11
-27.181353
  21
15.988157
  31
0.000000
  0
LINE
  8
0
  10
-27.181353
  20
15.988157
  30
0.000000
  11
-27.007111
  21
15.988157
  31
0.000000
  0
LINE
  8
0
  10
-27.007111
  20
15.988157
  30
0.000000
  11
-26.745747
  21
16.075278
  31
0.000000
  0
LINE
  8
0
  10
-26.745747
  20
16.075278
  30
0.000000
  11
-26.571505
  21
16.336642
  31
0.000000
  0
LINE
  8
0
  10
-26.571505
  20
16.336642
  30
0.000000
  11
-26.484384
  21
16.772248
  31
0.000000
  0
LINE
  8
0
  10
-26.484384
  20
16.772248
  30
0.000000
  11
-26.484384
  21
17.033612
  31
0.000000
  0
LINE
  8
0
  10
-26.484384
  20
17.033612
  30
0.000000
  11
-26.571505
  21
17.469218
  31
0.000000
  0
LINE
  8
0
  10
-26.571505
  20
17.469218
  30
0.000000
  11
-26.745747
  21
17.730581
  31
0.000000
  0
LINE
  8
0
  10
-26.745747
  20
17.730581
  30
0.000000
  11
-27.007111
  21
17.817702
  31
0.000000
  0
LINE
  8
0
  10
-27.007111
  20
17.817702
  30
0.000000
  11
-27.181353
  21
17.817702
  31
0.000000
  0
LINE
  8
0
  10
-25.787414
  20
16.162399
  30
0.000000
  11
-25.874535
  21
16.075278
  31
0.000000
  0
LINE
  8
0
  10
-25.874535
  20
16.075278
  30
0.000000
  11
-25.787414
  21
15.988157
  31
0.000000
  0
LINE
  8
0
  10
-25.787414
  20
15.988157
  30
0.000000
  11
-25.700293
  21
16.075278
  31
0.000000
  0
LINE
  8
0
  10
-25.700293
  20
16.075278
  30
0.000000
  11
-25.787414
  21
16.162399
  31
0.000000
  0
LINE
  8
0
  10
-24.567717
  20
17.817702
  30
0.000000
  11
-24.829080
  21
17.730581
  31
0.000000
  0
LINE
  8
0
  10
-24.829080
  20
17.730581
  30
0.000000
  11
-25.003323
  21
17.469218
  31
0.000000
  0
LINE
  8
0
  10
-25.003323
  20
17.469218
  30
0.000000
  11
-25.090444
  21
17.033612
  31
0.000000
  0
LINE
  8
0
  10
-25.090444
  20
17.033612
  30
0.000000
  11
-25.090444
  21
16.772248
  31
0.000000
  0
LINE
  8
0
  10
-25.090444
  20
16.772248
  30
0.000000
  11
-25.003323
  21
16.336642
  31
0.000000
  0
LINE
  8
0
  10
-25.003323
  20
16.336642
  30
0.000000
  11
-24.829080
  21
16.075278
  31
0.000000
  0
LINE
  8
0
  10
-24.829080
  20
16.075278
  30
0.000000
  11
-24.567717
  21
15.988157
  31
0.000000
  0
LINE
  8
0
  10
-24.567717
  20
15.988157
  30
0.000000
  11
-24.393474
  21
15.988157
  31
0.000000
  0
LINE
  8
0
  10
-24.393474
  20
15.988157
  30
0.000000
  11
-24.132111
  21
16.075278
  31
0.000000
  0
LINE
  8
0
  10
-24.132111
  20
16.075278
  30
0.000000
  11
-23.957868
  21
16.336642
  31
0.000000
  0
LINE
  8
0
  10
-23.957868
  20
16.336642
  30
0.000000
  11
-23.870747
  21
16.772248
  31
0.000000
  0
LINE
  8
0
  10
-23.870747
  20
16.772248
  30
0.000000
  11
-23.870747
  21
17.033612
  31
0.000000
  0
LINE
  8
0
  10
-23.870747
  20
17.033612
  30
0.000000
  11
-23.957868
  21
17.469218
  31
0.000000
  0
LINE
  8
0
  10
-23.957868
  20
17.469218
  30
0.000000
  11
-24.132111
  21
17.730581
  31
0.000000
  0
LINE
  8
0
  10
-24.132111
  20
17.730581
  30
0.000000
  11
-24.393474
  21
17.817702
  31
0.000000
  0
LINE
  8
0
  10
-24.393474
  20
17.817702
  30
0.000000
  11
-24.567717
  21
17.817702
  31
0.000000
  0
LINE
  8
0
  10
-22.825293
  20
17.817702
  30
0.000000
  11
-23.086656
  21
17.730581
  31
0.000000
  0
LINE
  8
0
  10
-23.086656
  20
17.730581
  30
0.000000
  11
-23.260899
  21
17.469218
  31
0.000000
  0
LINE
  8
0
  10
-23.260899
  20
17.469218
  30
0.000000
  11
-23.348020
  21
17.033612
  31
0.000000
  0
LINE
  8
0
  10
-23.348020
  20
17.033612
  30
0.000000
  11
-23.348020
  21
16.772248
  31
0.000000
  0
LINE
  8
0
  10
-23.348020
  20
16.772248
  30
0.000000
  11
-23.260899
  21
16.336642
  31
0.000000
  0
LINE
  8
0
  10
-23.260899
  20
16.336642
  30
0.000000
  11
-23.086656
  21
16.075278
  31
0.000000
  0
LINE
  8
0
  10
-23.086656
  20
16.075278
  30
0.000000
  11
-22.825293
  21
15.988157
  31
0.000000
  0
LINE
  8
0
  10
-22.825293
  20
15.988157
  30
0.000000
  11
-22.651050
  21
15.988157
  31
0.000000
  0
LINE
  8
0
  10
-22.651050
  20
15.988157
  30
0.000000
  11
-22.389687
  21
16.075278
  31
0.000000
  0
LINE
  8
0
  10
-22.389687
  20
16.075278
  30
0.000000
  11
-22.215444
  21
16.336642
  31
0.000000
  0
LINE
  8
0
  10
-22.215444
  20
16.336642
  30
0.000000
  11
-22.128323
  21
16.772248
  31
0.000000
  0
LINE
  8
0
  10
-22.128323
  20
16.772248
  30
0.000000
  11
-22.128323
  21
17.033612
  31
0.000000
  0
LINE
  8
0
  10
-22.128323
  20
17.033612
  30
0.000000
  11
-22.215444
  21
17.469218
  31
0.000000
  0
LINE
  8
0
  10
-22.215444
  20
17.469218
  30
0.000000
  11
-22.389687
  21
17.730581
  31
0.000000
  0
LINE
  8
0
  10
-22.389687
  20
17.730581
  30
0.000000
  11
-22.651050
  21
17.817702
  31
0.000000
  0
LINE
  8
0
  10
-22.651050
  20
17.817702
  30
0.000000
  11
-22.825293
  21
17.817702
  31
0.000000
  0
LINE
  8
0
  10
-32.738171
  20
17.654824
  30
0.000000
  11
-33.154838
  21
17.543178
  31
0.000000
  0
LINE
  8
0
  10
-33.154838
  20
17.543178
  30
0.000000
  11
-33.459859
  21
17.238157
  31
0.000000
  0
LINE
  8
0
  10
-33.459859
  20
17.238157
  30
0.000000
  11
-33.571505
  21
16.821490
  31
0.000000
  0
LINE
  8
0
  10
-33.571505
  20
16.821490
  30
0.000000
  11
-33.459859
  21
16.404824
  31
0.000000
  0
LINE
  8
0
  10
-33.459859
  20
16.404824
  30
0.000000
  11
-33.154838
  21
16.099803
  31
0.000000
  0
LINE
  8
0
  10
-33.154838
  20
16.099803
  30
0.000000
  11
-32.738171
  21
15.988157
  31
0.000000
  0
LINE
  8
0
  10
-32.738171
  20
15.988157
  30
0.000000
  11
-32.321505
  21
16.099803
  31
0.000000
  0
LINE
  8
0
  10
-32.321505
  20
16.099803
  30
0.000000
  11
-32.016484
  21
16.404824
  31
0.000000
  0
LINE
  8
0
  10
-32.016484
  20
16.404824
  30
0.000000
  11
-31.904838
  21
16.821490
  31
0.000000
  0
LINE
  8
0
  10
-31.904838
  20
16.821490
  30
0.000000
  11
-32.016484
  21
17.238157
  31
0.000000
  0
LINE
  8
0
  10
-32.016484
  20
17.238157
  30
0.000000
  11
-32.321505
  21
17.543178
  31
0.000000
  0
LINE
  8
0
  10
-32.321505
  20
17.543178
  30
0.000000
  11
-32.738171
  21
17.654824
  31
0.000000
  0
LINE
  8
0
  10
-77.533333
  20
12.333333
  30
0.000000
  11
-77.533333
  21
12.333333
  31
0.000000
  0
LINE
  8
0
  10
-77.533333
  20
-27.666667
  30
0.000000
  11
-77.533333
  21
-27.666667
  31
0.000000
  0
LINE
  8
0
  10
92.466667
  20
-27.666667
  30
0.000000
  11
92.466667
  21
-27.666667
  31
0.000000
  0
LINE
  8
0
  10
92.466667
  20
12.333333
  30
0.000000
  11
92.466667
  21
12.333333
  31
0.000000
  0
LINE
  8
0
  10
92.466667
  20
12.333333
  30
0.000000
  11
92.466667
  21
12.333333
  31
0.000000
  0
LINE
  8
0
  10
72.466667
  20
12.333333
  30
0.000000
  11
72.466667
  21
12.333333
  31
0.000000
  0
LINE
  8
0
  10
-57.533333
  20
12.333333
  30
0.000000
  11
-57.533333
  21
12.333333
  31
0.000000
  0
LINE
  8
0
  10
-77.533333
  20
12.333333
  30
0.000000
  11
-77.533333
  21
12.333333
  31
0.000000
  0
LINE
  8
0
  10
-77.533333
  20
12.333333
  30
0.000000
  11
-77.533333
  21
12.333333
  31
0.000000
  0
LINE
  8
0
  10
-77.533333
  20
-27.666667
  30
0.000000
  11
-77.533333
  21
-27.666667
  31
0.000000
  0
LINE
  8
0
  10
-103.810473
  20
-6.795455
  30
0.000000
  11
-104.071836
  21
-6.882576
  31
0.000000
  0
LINE
  8
0
  10
-104.071836
  20
-6.882576
  30
0.000000
  11
-104.246079
  21
-7.143939
  31
0.000000
  0
LINE
  8
0
  10
-104.246079
  20
-7.143939
  30
0.000000
  11
-104.333200
  21
-7.579545
  31
0.000000
  0
LINE
  8
0
  10
-104.333200
  20
-7.579545
  30
0.000000
  11
-104.333200
  21
-7.840909
  31
0.000000
  0
LINE
  8
0
  10
-104.333200
  20
-7.840909
  30
0.000000
  11
-104.246079
  21
-8.276515
  31
0.000000
  0
LINE
  8
0
  10
-104.246079
  20
-8.276515
  30
0.000000
  11
-104.071836
  21
-8.537879
  31
0.000000
  0
LINE
  8
0
  10
-104.071836
  20
-8.537879
  30
0.000000
  11
-103.810473
  21
-8.625000
  31
0.000000
  0
LINE
  8
0
  10
-103.810473
  20
-8.625000
  30
0.000000
  11
-103.636230
  21
-8.625000
  31
0.000000
  0
LINE
  8
0
  10
-103.636230
  20
-8.625000
  30
0.000000
  11
-103.374867
  21
-8.537879
  31
0.000000
  0
LINE
  8
0
  10
-103.374867
  20
-8.537879
  30
0.000000
  11
-103.200624
  21
-8.276515
  31
0.000000
  0
LINE
  8
0
  10
-103.200624
  20
-8.276515
  30
0.000000
  11
-103.113503
  21
-7.840909
  31
0.000000
  0
LINE
  8
0
  10
-103.113503
  20
-7.840909
  30
0.000000
  11
-103.113503
  21
-7.579545
  31
0.000000
  0
LINE
  8
0
  10
-103.113503
  20
-7.579545
  30
0.000000
  11
-103.200624
  21
-7.143939
  31
0.000000
  0
LINE
  8
0
  10
-103.200624
  20
-7.143939
  30
0.000000
  11
-103.374867
  21
-6.882576
  31
0.000000
  0
LINE
  8
0
  10
-103.374867
  20
-6.882576
  30
0.000000
  11
-103.636230
  21
-6.795455
  31
0.000000
  0
LINE
  8
0
  10
-103.636230
  20
-6.795455
  30
0.000000
  11
-103.810473
  21
-6.795455
  31
0.000000
  0
LINE
  8
0
  10
-102.416533
  20
-8.450758
  30
0.000000
  11
-102.503655
  21
-8.537879
  31
0.000000
  0
LINE
  8
0
  10
-102.503655
  20
-8.537879
  30
0.000000
  11
-102.416533
  21
-8.625000
  31
0.000000
  0
LINE
  8
0
  10
-102.416533
  20
-8.625000
  30
0.000000
  11
-102.329412
  21
-8.537879
  31
0.000000
  0
LINE
  8
0
  10
-102.329412
  20
-8.537879
  30
0.000000
  11
-102.416533
  21
-8.450758
  31
0.000000
  0
LINE
  8
0
  10
-101.196836
  20
-6.795455
  30
0.000000
  11
-101.458200
  21
-6.882576
  31
0.000000
  0
LINE
  8
0
  10
-101.458200
  20
-6.882576
  30
0.000000
  11
-101.632442
  21
-7.143939
  31
0.000000
  0
LINE
  8
0
  10
-101.632442
  20
-7.143939
  30
0.000000
  11
-101.719564
  21
-7.579545
  31
0.000000
  0
LINE
  8
0
  10
-101.719564
  20
-7.579545
  30
0.000000
  11
-101.719564
  21
-7.840909
  31
0.000000
  0
LINE
  8
0
  10
-101.719564
  20
-7.840909
  30
0.000000
  11
-101.632442
  21
-8.276515
  31
0.000000
  0
LINE
  8
0
  10
-101.632442
  20
-8.276515
  30
0.000000
  11
-101.458200
  21
-8.537879
  31
0.000000
  0
LINE
  8
0
  10
-101.458200
  20
-8.537879
  30
0.000000
  11
-101.196836
  21
-8.625000
  31
0.000000
  0
LINE
  8
0
  10
-101.196836
  20
-8.625000
  30
0.000000
  11
-101.022594
  21
-8.625000
  31
0.000000
  0
LINE
  8
0
  10
-101.022594
  20
-8.625000
  30
0.000000
  11
-100.761230
  21
-8.537879
  31
0.000000
  0
LINE
  8
0
  10
-100.761230
  20
-8.537879
  30
0.000000
  11
-100.586988
  21
-8.276515
  31
0.000000
  0
LINE
  8
0
  10
-100.586988
  20
-8.276515
  30
0.000000
  11
-100.499867
  21
-7.840909
  31
0.000000
  0
LINE
  8
0
  10
-100.499867
  20
-7.840909
  30
0.000000
  11
-100.499867
  21
-7.579545
  31
0.000000
  0
LINE
  8
0
  10
-100.499867
  20
-7.579545
  30
0.000000
  11
-100.586988
  21
-7.143939
  31
0.000000
  0
LINE
  8
0
  10
-100.586988
  20
-7.143939
  30
0.000000
  11
-100.761230
  21
-6.882576
  31
0.000000
  0
LINE
  8
0
  10
-100.761230
  20
-6.882576
  30
0.000000
  11
-101.022594
  21
-6.795455
  31
0.000000
  0
LINE
  8
0
  10
-101.022594
  20
-6.795455
  30
0.000000
  11
-101.196836
  21
-6.795455
  31
0.000000
  0
LINE
  8
0
  10
-99.454412
  20
-6.795455
  30
0.000000
  11
-99.715776
  21
-6.882576
  31
0.000000
  0
LINE
  8
0
  10
-99.715776
  20
-6.882576
  30
0.000000
  11
-99.890018
  21
-7.143939
  31
0.000000
  0
LINE
  8
0
  10
-99.890018
  20
-7.143939
  30
0.000000
  11
-99.977139
  21
-7.579545
  31
0.000000
  0
LINE
  8
0
  10
-99.977139
  20
-7.579545
  30
0.000000
  11
-99.977139
  21
-7.840909
  31
0.000000
  0
LINE
  8
0
  10
-99.977139
  20
-7.840909
  30
0.000000
  11
-99.890018
  21
-8.276515
  31
0.000000
  0
LINE
  8
0
  10
-99.890018
  20
-8.276515
  30
0.000000
  11
-99.715776
  21
-8.537879
  31
0.000000
  0
LINE
  8
0
  10
-99.715776
  20
-8.537879
  30
0.000000
  11
-99.454412
  21
-8.625000
  31
0.000000
  0
LINE
  8
0
  10
-99.454412
  20
-8.625000
  30
0.000000
  11
-99.280170
  21
-8.625000
  31
0.000000
  0
LINE
  8
0
  10
-99.280170
  20
-8.625000
  30
0.000000
  11
-99.018806
  21
-8.537879
  31
0.000000
  0
LINE
  8
0
  10
-99.018806
  20
-8.537879
  30
0.000000
  11
-98.844564
  21
-8.276515
  31
0.000000
  0
LINE
  8
0
  10
-98.844564
  20
-8.276515
  30
0.000000
  11
-98.757442
  21
-7.840909
  31
0.000000
  0
LINE
  8
0
  10
-98.757442
  20
-7.840909
  30
0.000000
  11
-98.757442
  21
-7.579545
  31
0.000000
  0
LINE
  8
0
  10
-98.757442
  20
-7.579545
  30
0.000000
  11
-98.844564
  21
-7.143939
  31
0.000000
  0
LINE
  8
0
  10
-98.844564
  20
-7.143939
  30
0.000000
  11
-99.018806
  21
-6.882576
  31
0.000000
  0
LINE
  8
0
  10
-99.018806
  20
-6.882576
  30
0.000000
  11
-99.280170
  21
-6.795455
  31
0.000000
  0
LINE
  8
0
  10
-99.280170
  20
-6.795455
  30
0.000000
  11
-99.454412
  21
-6.795455
  31
0.000000
  0
LINE
  8
0
  10
-77.533333
  20
-27.666667
  30
0.000000
  11
-77.533333
  21
-27.666667
  31
0.000000
  0
LINE
  8
0
  10
92.466667
  20
-27.666667
  30
0.000000
  11
92.466667
  21
-27.666667
  31
0.000000
  0
LINE
  8
0
  10
5.943939
  20
-42.295455
  30
0.000000
  11
5.682576
  21
-42.382576
  31
0.000000
  0
LINE
  8
0
  10
5.682576
  20
-42.382576
  30
0.000000
  11
5.508333
  21
-42.643939
  31
0.000000
  0
LINE
  8
0
  10
5.508333
  20
-42.643939
  30
0.000000
  11
5.421212
  21
-43.079545
  31
0.000000
  0
LINE
  8
0
  10
5.421212
  20
-43.079545
  30
0.000000
  11
5.421212
  21
-43.340909
  31
0.000000
  0
LINE
  8
0
  10
5.421212
  20
-43.340909
  30
0.000000
  11
5.508333
  21
-43.776515
  31
0.000000
  0
LINE
  8
0
  10
5.508333
  20
-43.776515
  30
0.000000
  11
5.682576
  21
-44.037879
  31
0.000000
  0
LINE
  8
0
  10
5.682576
  20
-44.037879
  30
0.000000
  11
5.943939
  21
-44.125000
  31
0.000000
  0
LINE
  8
0
  10
5.943939
  20
-44.125000
  30
0.000000
  11
6.118182
  21
-44.125000
  31
0.000000
  0
LINE
  8
0
  10
6.118182
  20
-44.125000
  30
0.000000
  11
6.379545
  21
-44.037879
  31
0.000000
  0
LINE
  8
0
  10
6.379545
  20
-44.037879
  30
0.000000
  11
6.553788
  21
-43.776515
  31
0.000000
  0
LINE
  8
0
  10
6.553788
  20
-43.776515
  30
0.000000
  11
6.640909
  21
-43.340909
  31
0.000000
  0
LINE
  8
0
  10
6.640909
  20
-43.340909
  30
0.000000
  11
6.640909
  21
-43.079545
  31
0.000000
  0
LINE
  8
0
  10
6.640909
  20
-43.079545
  30
0.000000
  11
6.553788
  21
-42.643939
  31
0.000000
  0
LINE
  8
0
  10
6.553788
  20
-42.643939
  30
0.000000
  11
6.379545
  21
-42.382576
  31
0.000000
  0
LINE
  8
0
  10
6.379545
  20
-42.382576
  30
0.000000
  11
6.118182
  21
-42.295455
  31
0.000000
  0
LINE
  8
0
  10
6.118182
  20
-42.295455
  30
0.000000
  11
5.943939
  21
-42.295455
  31
0.000000
  0
LINE
  8
0
  10
7.337879
  20
-43.950758
  30
0.000000
  11
7.250758
  21
-44.037879
  31
0.000000
  0
LINE
  8
0
  10
7.250758
  20
-44.037879
  30
0.000000
  11
7.337879
  21
-44.125000
  31
0.000000
  0
LINE
  8
0
  10
7.337879
  20
-44.125000
  30
0.000000
  11
7.425000
  21
-44.037879
  31
0.000000
  0
LINE
  8
0
  10
7.425000
  20
-44.037879
  30
0.000000
  11
7.337879
  21
-43.950758
  31
0.000000
  0
LINE
  8
0
  10
8.557576
  20
-42.295455
  30
0.000000
  11
8.296212
  21
-42.382576
  31
0.000000
  0
LINE
  8
0
  10
8.296212
  20
-42.382576
  30
0.000000
  11
8.121970
  21
-42.643939
  31
0.000000
  0
LINE
  8
0
  10
8.121970
  20
-42.643939
  30
0.000000
  11
8.034848
  21
-43.079545
  31
0.000000
  0
LINE
  8
0
  10
8.034848
  20
-43.079545
  30
0.000000
  11
8.034848
  21
-43.340909
  31
0.000000
  0
LINE
  8
0
  10
8.034848
  20
-43.340909
  30
0.000000
  11
8.121970
  21
-43.776515
  31
0.000000
  0
LINE
  8
0
  10
8.121970
  20
-43.776515
  30
0.000000
  11
8.296212
  21
-44.037879
  31
0.000000
  0
LINE
  8
0
  10
8.296212
  20
-44.037879
  30
0.000000
  11
8.557576
  21
-44.125000
  31
0.000000
  0
LINE
  8
0
  10
8.557576
  20
-44.125000
  30
0.000000
  11
8.731818
  21
-44.125000
  31
0.000000
  0
LINE
  8
0
  10
8.731818
  20
-44.125000
  30
0.000000
  11
8.993182
  21
-44.037879
  31
0.000000
  0
LINE
  8
0
  10
8.993182
  20
-44.037879
  30
0.000000
  11
9.167424
  21
-43.776515
  31
0.000000
  0
LINE
  8
0
  10
9.167424
  20
-43.776515
  30
0.000000
  11
9.254545
  21
-43.340909
  31
0.000000
  0
LINE
  8
0
  10
9.254545
  20
-43.340909
  30
0.000000
  11
9.254545
  21
-43.079545
  31
0.000000
  0
LINE
  8
0
  10
9.254545
  20
-43.079545
  30
0.000000
  11
9.167424
  21
-42.643939
  31
0.000000
  0
LINE
  8
0
  10
9.167424
  20
-42.643939
  30
0.000000
  11
8.993182
  21
-42.382576
  31
0.000000
  0
LINE
  8
0
  10
8.993182
  20
-42.382576
  30
0.000000
  11
8.731818
  21
-42.295455
  31
0.000000
  0
LINE
  8
0
  10
8.731818
  20
-42.295455
  30
0.000000
  11
8.557576
  21
-42.295455
  31
0.000000
  0
LINE
  8
0
  10
10.300000
  20
-42.295455
  30
0.000000
  11
10.038636
  21
-42.382576
  31
0.000000
  0
LINE
  8
0
  10
10.038636
  20
-42.382576
  30
0.000000
  11
9.864394
  21
-42.643939
  31
0.000000
  0
LINE
  8
0
  10
9.864394
  20
-42.643939
  30
0.000000
  11
9.777273
  21
-43.079545
  31
0.000000
  0
LINE
  8
0
  10
9.777273
  20
-43.079545
  30
0.000000
  11
9.777273
  21
-43.340909
  31
0.000000
  0
LINE
  8
0
  10
9.777273
  20
-43.340909
  30
0.000000
  11
9.864394
  21
-43.776515
  31
0.000000
  0
LINE
  8
0
  10
9.864394
  20
-43.776515
  30
0.000000
  11
10.038636
  21
-44.037879
  31
0.000000
  0
LINE
  8
0
  10
10.038636
  20
-44.037879
  30
0.000000
  11
10.300000
  21
-44.125000
  31
0.000000
  0
LINE
  8
0
  10
10.300000
  20
-44.125000
  30
0.000000
  11
10.474242
  21
-44.125000
  31
0.000000
  0
LINE
  8
0
  10
10.474242
  20
-44.125000
  30
0.000000
  11
10.735606
  21
-44.037879
  31
0.000000
  0
LINE
  8
0
  10
10.735606
  20
-44.037879
  30
0.000000
  11
10.909848
  21
-43.776515
  31
0.000000
  0
LINE
  8
0
  10
10.909848
  20
-43.776515
  30
0.000000
  11
10.996970
  21
-43.340909
  31
0.000000
  0
LINE
  8
0
  10
10.996970
  20
-43.340909
  30
0.000000
  11
10.996970
  21
-43.079545
  31
0.000000
  0
LINE
  8
0
  10
10.996970
  20
-43.079545
  30
0.000000
  11
10.909848
  21
-42.643939
  31
0.000000
  0
LINE
  8
0
  10
10.909848
  20
-42.643939
  30
0.000000
  11
10.735606
  21
-42.382576
  31
0.000000
  0
LINE
  8
0
  10
10.735606
  20
-42.382576
  30
0.000000
  11
10.474242
  21
-42.295455
  31
0.000000
  0
LINE
  8
0
  10
10.474242
  20
-42.295455
  30
0.000000
  11
10.300000
  21
-42.295455
  31
0.000000
  0
LINE
  8
0
  10
-57.533333
  20
12.333333
  30
0.000000
  11
-57.533333
  21
12.333333
  31
0.000000
  0
LINE
  8
0
  10
-77.533333
  20
12.333333
  30
0.000000
  11
-77.533333
  21
12.333333
  31
0.000000
  0
LINE
  8
0
  10
-68.687273
  20
25.924545
  30
0.000000
  11
-68.948636
  21
25.837424
  31
0.000000
  0
LINE
  8
0
  10
-68.948636
  20
25.837424
  30
0.000000
  11
-69.122879
  21
25.576061
  31
0.000000
  0
LINE
  8
0
  10
-69.122879
  20
25.576061
  30
0.000000
  11
-69.210000
  21
25.140455
  31
0.000000
  0
LINE
  8
0
  10
-69.210000
  20
25.140455
  30
0.000000
  11
-69.210000
  21
24.879091
  31
0.000000
  0
LINE
  8
0
  10
-69.210000
  20
24.879091
  30
0.000000
  11
-69.122879
  21
24.443485
  31
0.000000
  0
LINE
  8
0
  10
-69.122879
  20
24.443485
  30
0.000000
  11
-68.948636
  21
24.182121
  31
0.000000
  0
LINE
  8
0
  10
-68.948636
  20
24.182121
  30
0.000000
  11
-68.687273
  21
24.095000
  31
0.000000
  0
LINE
  8
0
  10
-68.687273
  20
24.095000
  30
0.000000
  11
-68.513030
  21
24.095000
  31
0.000000
  0
LINE
  8
0
  10
-68.513030
  20
24.095000
  30
0.000000
  11
-68.251667
  21
24.182121
  31
0.000000
  0
LINE
  8
0
  10
-68.251667
  20
24.182121
  30
0.000000
  11
-68.077424
  21
24.443485
  31
0.000000
  0
LINE
  8
0
  10
-68.077424
  20
24.443485
  30
0.000000
  11
-67.990303
  21
24.879091
  31
0.000000
  0
LINE
  8
0
  10
-67.990303
  20
24.879091
  30
0.000000
  11
-67.990303
  21
25.140455
  31
0.000000
  0
LINE
  8
0
  10
-67.990303
  20
25.140455
  30
0.000000
  11
-68.077424
  21
25.576061
  31
0.000000
  0
LINE
  8
0
  10
-68.077424
  20
25.576061
  30
0.000000
  11
-68.251667
  21
25.837424
  31
0.000000
  0
LINE
  8
0
  10
-68.251667
  20
25.837424
  30
0.000000
  11
-68.513030
  21
25.924545
  31
0.000000
  0
LINE
  8
0
  10
-68.513030
  20
25.924545
  30
0.000000
  11
-68.687273
  21
25.924545
  31
0.000000
  0
LINE
  8
0
  10
-67.293333
  20
24.269242
  30
0.000000
  11
-67.380455
  21
24.182121
  31
0.000000
  0
LINE
  8
0
  10
-67.380455
  20
24.182121
  30
0.000000
  11
-67.293333
  21
24.095000
  31
0.000000
  0
LINE
  8
0
  10
-67.293333
  20
24.095000
  30
0.000000
  11
-67.206212
  21
24.182121
  31
0.000000
  0
LINE
  8
0
  10
-67.206212
  20
24.182121
  30
0.000000
  11
-67.293333
  21
24.269242
  31
0.000000
  0
LINE
  8
0
  10
-66.073636
  20
25.924545
  30
0.000000
  11
-66.335000
  21
25.837424
  31
0.000000
  0
LINE
  8
0
  10
-66.335000
  20
25.837424
  30
0.000000
  11
-66.509242
  21
25.576061
  31
0.000000
  0
LINE
  8
0
  10
-66.509242
  20
25.576061
  30
0.000000
  11
-66.596364
  21
25.140455
  31
0.000000
  0
LINE
  8
0
  10
-66.596364
  20
25.140455
  30
0.000000
  11
-66.596364
  21
24.879091
  31
0.000000
  0
LINE
  8
0
  10
-66.596364
  20
24.879091
  30
0.000000
  11
-66.509242
  21
24.443485
  31
0.000000
  0
LINE
  8
0
  10
-66.509242
  20
24.443485
  30
0.000000
  11
-66.335000
  21
24.182121
  31
0.000000
  0
LINE
  8
0
  10
-66.335000
  20
24.182121
  30
0.000000
  11
-66.073636
  21
24.095000
  31
0.000000
  0
LINE
  8
0
  10
-66.073636
  20
24.095000
  30
0.000000
  11
-65.899394
  21
24.095000
  31
0.000000
  0
LINE
  8
0
  10
-65.899394
  20
24.095000
  30
0.000000
  11
-65.638030
  21
24.182121
  31
0.000000
  0
LINE
  8
0
  10
-65.638030
  20
24.182121
  30
0.000000
  11
-65.463788
  21
24.443485
  31
0.000000
  0
LINE
  8
0
  10
-65.463788
  20
24.443485
  30
0.000000
  11
-65.376667
  21
24.879091
  31
0.000000
  0
LINE
  8
0
  10
-65.376667
  20
24.879091
  30
0.000000
  11
-65.376667
  21
25.140455
  31
0.000000
  0
LINE
  8
0
  10
-65.376667
  20
25.140455
  30
0.000000
  11
-65.463788
  21
25.576061
  31
0.000000
  0
LINE
  8
0
  10
-65.463788
  20
25.576061
  30
0.000000
  11
-65.638030
  21
25.837424
  31
0.000000
  0
LINE
  8
0
  10
-65.638030
  20
25.837424
  30
0.000000
  11
-65.899394
  21
25.924545
  31
0.000000
  0
LINE
  8
0
  10
-65.899394
  20
25.924545
  30
0.000000
  11
-66.073636
  21
25.924545
  31
0.000000
  0
LINE
  8
0
  10
-64.331212
  20
25.924545
  30
0.000000
  11
-64.592576
  21
25.837424
  31
0.000000
  0
LINE
  8
0
  10
-64.592576
  20
25.837424
  30
0.000000
  11
-64.766818
  21
25.576061
  31
0.000000
  0
LINE
  8
0
  10
-64.766818
  20
25.576061
  30
0.000000
  11
-64.853939
  21
25.140455
  31
0.000000
  0
LINE
  8
0
  10
-64.853939
  20
25.140455
  30
0.000000
  11
-64.853939
  21
24.879091
  31
0.000000
  0
LINE
  8
0
  10
-64.853939
  20
24.879091
  30
0.000000
  11
-64.766818
  21
24.443485
  31
0.000000
  0
LINE
  8
0
  10
-64.766818
  20
24.443485
  30
0.000000
  11
-64.592576
  21
24.182121
  31
0.000000
  0
LINE
  8
0
  10
-64.592576
  20
24.182121
  30
0.000000
  11
-64.331212
  21
24.095000
  31
0.000000
  0
LINE
  8
0
  10
-64.331212
  20
24.095000
  30
0.000000
  11
-64.156970
  21
24.095000
  31
0.000000
  0
LINE
  8
0
  10
-64.156970
  20
24.095000
  30
0.000000
  11
-63.895606
  21
24.182121
  31
0.000000
  0
LINE
  8
0
  10
-63.895606
  20
24.182121
  30
0.000000
  11
-63.721364
  21
24.443485
  31
0.000000
  0
LINE
  8
0
  10
-63.721364
  20
24.443485
  30
0.000000
  11
-63.634242
  21
24.879091
  31
0.000000
  0
LINE
  8
0
  10
-63.634242
  20
24.879091
  30
0.000000
  11
-63.634242
  21
25.140455
  31
0.000000
  0
LINE
  8
0
  10
-63.634242
  20
25.140455
  30
0.000000
  11
-63.721364
  21
25.576061
  31
0.000000
  0
LINE
  8
0
  10
-63.721364
  20
25.576061
  30
0.000000
  11
-63.895606
  21
25.837424
  31
0.000000
  0
LINE
  8
0
  10
-63.895606
  20
25.837424
  30
0.000000
  11
-64.156970
  21
25.924545
  31
0.000000
  0
LINE
  8
0
  10
-64.156970
  20
25.924545
  30
0.000000
  11
-64.331212
  21
25.924545
  31
0.000000
  0
LINE
  8
0
  10
-67.533333
  20
6.750000
  30
0.000000
  11
-67.533333
  21
3.416667
  31
0.000000
  0
LINE
  8
0
  10
-67.533333
  20
3.416667
  30
0.000000
  11
-67.533333
  21
6.750000
  31
0.000000
  0
LINE
  8
0
  10
-66.533333
  20
13.333333
  30
0.000000
  11
-68.533333
  21
13.333333
  31
0.000000
  0
LINE
  8
0
  10
-68.533333
  20
13.333333
  30
0.000000
  11
-68.533333
  21
11.333333
  31
0.000000
  0
LINE
  8
0
  10
-68.533333
  20
11.333333
  30
0.000000
  11
-66.533333
  21
11.333333
  31
0.000000
  0
LINE
  8
0
  10
-66.533333
  20
11.333333
  30
0.000000
  11
-66.533333
  21
13.333333
  31
0.000000
  0
LINE
  8
0
  10
-67.533333
  20
-27.666667
  30
0.000000
  11
-67.533333
  21
-27.666667
  31
0.000000
  0
LINE
  8
0
  10
-74.066162
  20
-30.962121
  30
0.000000
  11
-74.327525
  21
-31.049242
  31
0.000000
  0
LINE
  8
0
  10
-74.327525
  20
-31.049242
  30
0.000000
  11
-74.501768
  21
-31.310606
  31
0.000000
  0
LINE
  8
0
  10
-74.501768
  20
-31.310606
  30
0.000000
  11
-74.588889
  21
-31.746212
  31
0.000000
  0
LINE
  8
0
  10
-74.588889
  20
-31.746212
  30
0.000000
  11
-74.588889
  21
-32.007576
  31
0.000000
  0
LINE
  8
0
  10
-74.588889
  20
-32.007576
  30
0.000000
  11
-74.501768
  21
-32.443182
  31
0.000000
  0
LINE
  8
0
  10
-74.501768
  20
-32.443182
  30
0.000000
  11
-74.327525
  21
-32.704545
  31
0.000000
  0
LINE
  8
0
  10
-74.327525
  20
-32.704545
  30
0.000000
  11
-74.066162
  21
-32.791667
  31
0.000000
  0
LINE
  8
0
  10
-74.066162
  20
-32.791667
  30
0.000000
  11
-73.891919
  21
-32.791667
  31
0.000000
  0
LINE
  8
0
  10
-73.891919
  20
-32.791667
  30
0.000000
  11
-73.630556
  21
-32.704545
  31
0.000000
  0
LINE
  8
0
  10
-73.630556
  20
-32.704545
  30
0.000000
  11
-73.456313
  21
-32.443182
  31
0.000000
  0
LINE
  8
0
  10
-73.456313
  20
-32.443182
  30
0.000000
  11
-73.369192
  21
-32.007576
  31
0.000000
  0
LINE
  8
0
  10
-73.369192
  20
-32.007576
  30
0.000000
  11
-73.369192
  21
-31.746212
  31
0.000000
  0
LINE
  8
0
  10
-73.369192
  20
-31.746212
  30
0.000000
  11
-73.456313
  21
-31.310606
  31
0.000000
  0
LINE
  8
0
  10
-73.456313
  20
-31.310606
  30
0.000000
  11
-73.630556
  21
-31.049242
  31
0.000000
  0
LINE
  8
0
  10
-73.630556
  20
-31.049242
  30
0.000000
  11
-73.891919
  21
-30.962121
  31
0.000000
  0
LINE
  8
0
  10
-73.891919
  20
-30.962121
  30
0.000000
  11
-74.066162
  21
-30.962121
  31
0.000000
  0
LINE
  8
0
  10
-72.672222
  20
-32.617424
  30
0.000000
  11
-72.759343
  21
-32.704545
  31
0.000000
  0
LINE
  8
0
  10
-72.759343
  20
-32.704545
  30
0.000000
  11
-72.672222
  21
-32.791667
  31
0.000000
  0
LINE
  8
0
  10
-72.672222
  20
-32.791667
  30
0.000000
  11
-72.585101
  21
-32.704545
  31
0.000000
  0
LINE
  8
0
  10
-72.585101
  20
-32.704545
  30
0.000000
  11
-72.672222
  21
-32.617424
  31
0.000000
  0
LINE
  8
0
  10
-71.452525
  20
-30.962121
  30
0.000000
  11
-71.713889
  21
-31.049242
  31
0.000000
  0
LINE
  8
0
  10
-71.713889
  20
-31.049242
  30
0.000000
  11
-71.888131
  21
-31.310606
  31
0.000000
  0
LINE
  8
0
  10
-71.888131
  20
-31.310606
  30
0.000000
  11
-71.975253
  21
-31.746212
  31
0.000000
  0
LINE
  8
0
  10
-71.975253
  20
-31.746212
  30
0.000000
  11
-71.975253
  21
-32.007576
  31
0.000000
  0
LINE
  8
0
  10
-71.975253
  20
-32.007576
  30
0.000000
  11
-71.888131
  21
-32.443182
  31
0.000000
  0
LINE
  8
0
  10
-71.888131
  20
-32.443182
  30
0.000000
  11
-71.713889
  21
-32.704545
  31
0.000000
  0
LINE
  8
0
  10
-71.713889
  20
-32.704545
  30
0.000000
  11
-71.452525
  21
-32.791667
  31
0.000000
  0
LINE
  8
0
  10
-71.452525
  20
-32.791667
  30
0.000000
  11
-71.278283
  21
-32.791667
  31
0.000000
  0
LINE
  8
0
  10
-71.278283
  20
-32.791667
  30
0.000000
  11
-71.016919
  21
-32.704545
  31
0.000000
  0
LINE
  8
0
  10
-71.016919
  20
-32.704545
  30
0.000000
  11
-70.842677
  21
-32.443182
  31
0.000000
  0
LINE
  8
0
  10
-70.842677
  20
-32.443182
  30
0.000000
  11
-70.755556
  21
-32.007576
  31
0.000000
  0
LINE
  8
0
  10
-70.755556
  20
-32.007576
  30
0.000000
  11
-70.755556
  21
-31.746212
  31
0.000000
  0
LINE
  8
0
  10
-70.755556
  20
-31.746212
  30
0.000000
  11
-70.842677
  21
-31.310606
  31
0.000000
  0
LINE
  8
0
  10
-70.842677
  20
-31.310606
  30
0.000000
  11
-71.016919
  21
-31.049242
  31
0.000000
  0
LINE
  8
0
  10
-71.016919
  20
-31.049242
  30
0.000000
  11
-71.278283
  21
-30.962121
  31
0.000000
  0
LINE
  8
0
  10
-71.278283
  20
-30.962121
  30
0.000000
  11
-71.452525
  21
-30.962121
  31
0.000000
  0
LINE
  8
0
  10
-69.710101
  20
-30.962121
  30
0.000000
  11
-69.971465
  21
-31.049242
  31
0.000000
  0
LINE
  8
0
  10
-69.971465
  20
-31.049242
  30
0.000000
  11
-70.145707
  21
-31.310606
  31
0.000000
  0
LINE
  8
0
  10
-70.145707
  20
-31.310606
  30
0.000000
  11
-70.232828
  21
-31.746212
  31
0.000000
  0
LINE
  8
0
  10
-70.232828
  20
-31.746212
  30
0.000000
  11
-70.232828
  21
-32.007576
  31
0.000000
  0
LINE
  8
0
  10
-70.232828
  20
-32.007576
  30
0.000000
  11
-70.145707
  21
-32.443182
  31
0.000000
  0
LINE
  8
0
  10
-70.145707
  20
-32.443182
  30
0.000000
  11
-69.971465
  21
-32.704545
  31
0.000000
  0
LINE
  8
0
  10
-69.971465
  20
-32.704545
  30
0.000000
  11
-69.710101
  21
-32.791667
  31
0.000000
  0
LINE
  8
0
  10
-69.710101
  20
-32.791667
  30
0.000000
  11
-69.535859
  21
-32.791667
  31
0.000000
  0
LINE
  8
0
  10
-69.535859
  20
-32.791667
  30
0.000000
  11
-69.274495
  21
-32.704545
  31
0.000000
  0
LINE
  8
0
  10
-69.274495
  20
-32.704545
  30
0.000000
  11
-69.100253
  21
-32.443182
  31
0.000000
  0
LINE
  8
0
  10
-69.100253
  20
-32.443182
  30
0.000000
  11
-69.013131
  21
-32.007576
  31
0.000000
  0
LINE
  8
0
  10
-69.013131
  20
-32.007576
  30
0.000000
  11
-69.013131
  21
-31.746212
  31
0.000000
  0
LINE
  8
0
  10
-69.013131
  20
-31.746212
  30
0.000000
  11
-69.100253
  21
-31.310606
  31
0.000000
  0
LINE
  8
0
  10
-69.100253
  20
-31.310606
  30
0.000000
  11
-69.274495
  21
-31.049242
  31
0.000000
  0
LINE
  8
0
  10
-69.274495
  20
-31.049242
  30
0.000000
  11
-69.535859
  21
-30.962121
  31
0.000000
  0
LINE
  8
0
  10
-69.535859
  20
-30.962121
  30
0.000000
  11
-69.710101
  21
-30.962121
  31
0.000000
  0
LINE
  8
0
  10
-77.533333
  20
-27.666667
  30
0.000000
  11
-77.533333
  21
-27.666667
  31
0.000000
  0
LINE
  8
0
  10
-67.533333
  20
-17.666667
  30
0.000000
  11
-67.533333
  21
-17.666667
  31
0.000000
  0
LINE
  8
0
  10
-84.621717
  20
-21.764788
  30
0.000000
  11
-84.883081
  21
-21.851909
  31
0.000000
  0
LINE
  8
0
  10
-84.883081
  20
-21.851909
  30
0.000000
  11
-85.057323
  21
-22.113273
  31
0.000000
  0
LINE
  8
0
  10
-85.057323
  20
-22.113273
  30
0.000000
  11
-85.144444
  21
-22.548879
  31
0.000000
  0
LINE
  8
0
  10
-85.144444
  20
-22.548879
  30
0.000000
  11
-85.144444
  21
-22.810242
  31
0.000000
  0
LINE
  8
0
  10
-85.144444
  20
-22.810242
  30
0.000000
  11
-85.057323
  21
-23.245848
  31
0.000000
  0
LINE
  8
0
  10
-85.057323
  20
-23.245848
  30
0.000000
  11
-84.883081
  21
-23.507212
  31
0.000000
  0
LINE
  8
0
  10
-84.883081
  20
-23.507212
  30
0.000000
  11
-84.621717
  21
-23.594333
  31
0.000000
  0
LINE
  8
0
  10
-84.621717
  20
-23.594333
  30
0.000000
  11
-84.447475
  21
-23.594333
  31
0.000000
  0
LINE
  8
0
  10
-84.447475
  20
-23.594333
  30
0.000000
  11
-84.186111
  21
-23.507212
  31
0.000000
  0
LINE
  8
0
  10
-84.186111
  20
-23.507212
  30
0.000000
  11
-84.011869
  21
-23.245848
  31
0.000000
  0
LINE
  8
0
  10
-84.011869
  20
-23.245848
  30
0.000000
  11
-83.924747
  21
-22.810242
  31
0.000000
  0
LINE
  8
0
  10
-83.924747
  20
-22.810242
  30
0.000000
  11
-83.924747
  21
-22.548879
  31
0.000000
  0
LINE
  8
0
  10
-83.924747
  20
-22.548879
  30
0.000000
  11
-84.011869
  21
-22.113273
  31
0.000000
  0
LINE
  8
0
  10
-84.011869
  20
-22.113273
  30
0.000000
  11
-84.186111
  21
-21.851909
  31
0.000000
  0
LINE
  8
0
  10
-84.186111
  20
-21.851909
  30
0.000000
  11
-84.447475
  21
-21.764788
  31
0.000000
  0
LINE
  8
0
  10
-84.447475
  20
-21.764788
  30
0.000000
  11
-84.621717
  21
-21.764788
  31
0.000000
  0
LINE
  8
0
  10
-83.227778
  20
-23.420091
  30
0.000000
  11
-83.314899
  21
-23.507212
  31
0.000000
  0
LINE
  8
0
  10
-83.314899
  20
-23.507212
  30
0.000000
  11
-83.227778
  21
-23.594333
  31
0.000000
  0
LINE
  8
0
  10
-83.227778
  20
-23.594333
  30
0.000000
  11
-83.140657
  21
-23.507212
  31
0.000000
  0
LINE
  8
0
  10
-83.140657
  20
-23.507212
  30
0.000000
  11
-83.227778
  21
-23.420091
  31
0.000000
  0
LINE
  8
0
  10
-82.008081
  20
-21.764788
  30
0.000000
  11
-82.269444
  21
-21.851909
  31
0.000000
  0
LINE
  8
0
  10
-82.269444
  20
-21.851909
  30
0.000000
  11
-82.443687
  21
-22.113273
  31
0.000000
  0
LINE
  8
0
  10
-82.443687
  20
-22.113273
  30
0.000000
  11
-82.530808
  21
-22.548879
  31
0.000000
  0
LINE
  8
0
  10
-82.530808
  20
-22.548879
  30
0.000000
  11
-82.530808
  21
-22.810242
  31
0.000000
  0
LINE
  8
0
  10
-82.530808
  20
-22.810242
  30
0.000000
  11
-82.443687
  21
-23.245848
  31
0.000000
  0
LINE
  8
0
  10
-82.443687
  20
-23.245848
  30
0.000000
  11
-82.269444
  21
-23.507212
  31
0.000000
  0
LINE
  8
0
  10
-82.269444
  20
-23.507212
  30
0.000000
  11
-82.008081
  21
-23.594333
  31
0.000000
  0
LINE
  8
0
  10
-82.008081
  20
-23.594333
  30
0.000000
  11
-81.833838
  21
-23.594333
  31
0.000000
  0
LINE
  8
0
  10
-81.833838
  20
-23.594333
  30
0.000000
  11
-81.572475
  21
-23.507212
  31
0.000000
  0
LINE
  8
0
  10
-81.572475
  20
-23.507212
  30
0.000000
  11
-81.398232
  21
-23.245848
  31
0.000000
  0
LINE
  8
0
  10
-81.398232
  20
-23.245848
  30
0.000000
  11
-81.311111
  21
-22.810242
  31
0.000000
  0
LINE
  8
0
  10
-81.311111
  20
-22.810242
  30
0.000000
  11
-81.311111
  21
-22.548879
  31
0.000000
  0
LINE
  8
0
  10
-81.311111
  20
-22.548879
  30
0.000000
  11
-81.398232
  21
-22.113273
  31
0.000000
  0
LINE
  8
0
  10
-81.398232
  20
-22.113273
  30
0.000000
  11
-81.572475
  21
-21.851909
  31
0.000000
  0
LINE
  8
0
  10
-81.572475
  20
-21.851909
  30
0.000000
  11
-81.833838
  21
-21.764788
  31
0.000000
  0
LINE
  8
0
  10
-81.833838
  20
-21.764788
  30
0.000000
  11
-82.008081
  21
-21.764788
  31
0.000000
  0
LINE
  8
0
  10
-80.265657
  20
-21.764788
  30
0.000000
  11
-80.527020
  21
-21.851909
  31
0.000000
  0
LINE
  8
0
  10
-80.527020
  20
-21.851909
  30
0.000000
  11
-80.701263
  21
-22.113273
  31
0.000000
  0
LINE
  8
0
  10
-80.701263
  20
-22.113273
  30
0.000000
  11
-80.788384
  21
-22.548879
  31
0.000000
  0
LINE
  8
0
  10
-80.788384
  20
-22.548879
  30
0.000000
  11
-80.788384
  21
-22.810242
  31
0.000000
  0
LINE
  8
0
  10
-80.788384
  20
-22.810242
  30
0.000000
  11
-80.701263
  21
-23.245848
  31
0.000000
  0
LINE
  8
0
  10
-80.701263
  20
-23.245848
  30
0.000000
  11
-80.527020
  21
-23.507212
  31
0.000000
  0
LINE
  8
0
  10
-80.527020
  20
-23.507212
  30
0.000000
  11
-80.265657
  21
-23.594333
  31
0.000000
  0
LINE
  8
0
  10
-80.265657
  20
-23.594333
  30
0.000000
  11
-80.091414
  21
-23.594333
  31
0.000000
  0
LINE
  8
0
  10
-80.091414
  20
-23.594333
  30
0.000000
  11
-79.830051
  21
-23.507212
  31
0.000000
  0
LINE
  8
0
  10
-79.830051
  20
-23.507212
  30
0.000000
  11
-79.655808
  21
-23.245848
  31
0.000000
  0
LINE
  8
0
  10
-79.655808
  20
-23.245848
  30
0.000000
  11
-79.568687
  21
-22.810242
  31
0.000000
  0
LINE
  8
0
  10
-79.568687
  20
-22.810242
  30
0.000000
  11
-79.568687
  21
-22.548879
  31
0.000000
  0
LINE
  8
0
  10
-79.568687
  20
-22.548879
  30
0.000000
  11
-79.655808
  21
-22.113273
  31
0.000000
  0
LINE
  8
0
  10
-79.655808
  20
-22.113273
  30
0.000000
  11
-79.830051
  21
-21.851909
  31
0.000000
  0
LINE
  8
0
  10
-79.830051
  20
-21.851909
  30
0.000000
  11
-80.091414
  21
-21.764788
  31
0.000000
  0
LINE
  8
0
  10
-80.091414
  20
-21.764788
  30
0.000000
  11
-80.265657
  21
-21.764788
  31
0.000000
  0
LINE
  8
0
  10
-67.533333
  20
-27.666667
  30
0.000000
  11
-67.533333
  21
-27.666667
  31
0.000000
  0
LINE
  8
0
  10
-67.533333
  20
2.333333
  30
0.000000
  11
-67.533333
  21
2.333333
  31
0.000000
  0
LINE
  8
0
  10
-93.751717
  20
-13.852343
  30
0.000000
  11
-94.013081
  21
-13.939465
  31
0.000000
  0
LINE
  8
0
  10
-94.013081
  20
-13.939465
  30
0.000000
  11
-94.187323
  21
-14.200828
  31
0.000000
  0
LINE
  8
0
  10
-94.187323
  20
-14.200828
  30
0.000000
  11
-94.274444
  21
-14.636434
  31
0.000000
  0
LINE
  8
0
  10
-94.274444
  20
-14.636434
  30
0.000000
  11
-94.274444
  21
-14.897798
  31
0.000000
  0
LINE
  8
0
  10
-94.274444
  20
-14.897798
  30
0.000000
  11
-94.187323
  21
-15.333404
  31
0.000000
  0
LINE
  8
0
  10
-94.187323
  20
-15.333404
  30
0.000000
  11
-94.013081
  21
-15.594768
  31
0.000000
  0
LINE
  8
0
  10
-94.013081
  20
-15.594768
  30
0.000000
  11
-93.751717
  21
-15.681889
  31
0.000000
  0
LINE
  8
0
  10
-93.751717
  20
-15.681889
  30
0.000000
  11
-93.577475
  21
-15.681889
  31
0.000000
  0
LINE
  8
0
  10
-93.577475
  20
-15.681889
  30
0.000000
  11
-93.316111
  21
-15.594768
  31
0.000000
  0
LINE
  8
0
  10
-93.316111
  20
-15.594768
  30
0.000000
  11
-93.141869
  21
-15.333404
  31
0.000000
  0
LINE
  8
0
  10
-93.141869
  20
-15.333404
  30
0.000000
  11
-93.054747
  21
-14.897798
  31
0.000000
  0
LINE
  8
0
  10
-93.054747
  20
-14.897798
  30
0.000000
  11
-93.054747
  21
-14.636434
  31
0.000000
  0
LINE
  8
0
  10
-93.054747
  20
-14.636434
  30
0.000000
  11
-93.141869
  21
-14.200828
  31
0.000000
  0
LINE
  8
0
  10
-93.141869
  20
-14.200828
  30
0.000000
  11
-93.316111
  21
-13.939465
  31
0.000000
  0
LINE
  8
0
  10
-93.316111
  20
-13.939465
  30
0.000000
  11
-93.577475
  21
-13.852343
  31
0.000000
  0
LINE
  8
0
  10
-93.577475
  20
-13.852343
  30
0.000000
  11
-93.751717
  21
-13.852343
  31
0.000000
  0
LINE
  8
0
  10
-92.357778
  20
-15.507646
  30
0.000000
  11
-92.444899
  21
-15.594768
  31
0.000000
  0
LINE
  8
0
  10
-92.444899
  20
-15.594768
  30
0.000000
  11
-92.357778
  21
-15.681889
  31
0.000000
  0
LINE
  8
0
  10
-92.357778
  20
-15.681889
  30
0.000000
  11
-92.270657
  21
-15.594768
  31
0.000000
  0
LINE
  8
0
  10
-92.270657
  20
-15.594768
  30
0.000000
  11
-92.357778
  21
-15.507646
  31
0.000000
  0
LINE
  8
0
  10
-91.138081
  20
-13.852343
  30
0.000000
  11
-91.399444
  21
-13.939465
  31
0.000000
  0
LINE
  8
0
  10
-91.399444
  20
-13.939465
  30
0.000000
  11
-91.573687
  21
-14.200828
  31
0.000000
  0
LINE
  8
0
  10
-91.573687
  20
-14.200828
  30
0.000000
  11
-91.660808
  21
-14.636434
  31
0.000000
  0
LINE
  8
0
  10
-91.660808
  20
-14.636434
  30
0.000000
  11
-91.660808
  21
-14.897798
  31
0.000000
  0
LINE
  8
0
  10
-91.660808
  20
-14.897798
  30
0.000000
  11
-91.573687
  21
-15.333404
  31
0.000000
  0
LINE
  8
0
  10
-91.573687
  20
-15.333404
  30
0.000000
  11
-91.399444
  21
-15.594768
  31
0.000000
  0
LINE
  8
0
  10
-91.399444
  20
-15.594768
  30
0.000000
  11
-91.138081
  21
-15.681889
  31
0.000000
  0
LINE
  8
0
  10
-91.138081
  20
-15.681889
  30
0.000000
  11
-90.963838
  21
-15.681889
  31
0.000000
  0
LINE
  8
0
  10
-90.963838
  20
-15.681889
  30
0.000000
  11
-90.702475
  21
-15.594768
  31
0.000000
  0
LINE
  8
0
  10
-90.702475
  20
-15.594768
  30
0.000000
  11
-90.528232
  21
-15.333404
  31
0.000000
  0
LINE
  8
0
  10
-90.528232
  20
-15.333404
  30
0.000000
  11
-90.441111
  21
-14.897798
  31
0.000000
  0
LINE
  8
0
  10
-90.441111
  20
-14.897798
  30
0.000000
  11
-90.441111
  21
-14.636434
  31
0.000000
  0
LINE
  8
0
  10
-90.441111
  20
-14.636434
  30
0.000000
  11
-90.528232
  21
-14.200828
  31
0.000000
  0
LINE
  8
0
  10
-90.528232
  20
-14.200828
  30
0.000000
  11
-90.702475
  21
-13.939465
  31
0.000000
  0
LINE
  8
0
  10
-90.702475
  20
-13.939465
  30
0.000000
  11
-90.963838
  21
-13.852343
  31
0.000000
  0
LINE
  8
0
  10
-90.963838
  20
-13.852343
  30
0.000000
  11
-91.138081
  21
-13.852343
  31
0.000000
  0
LINE
  8
0
  10
-89.395657
  20
-13.852343
  30
0.000000
  11
-89.657020
  21
-13.939465
  31
0.000000
  0
LINE
  8
0
  10
-89.657020
  20
-13.939465
  30
0.000000
  11
-89.831263
  21
-14.200828
  31
0.000000
  0
LINE
  8
0
  10
-89.831263
  20
-14.200828
  30
0.000000
  11
-89.918384
  21
-14.636434
  31
0.000000
  0
LINE
  8
0
  10
-89.918384
  20
-14.636434
  30
0.000000
  11
-89.918384
  21
-14.897798
  31
0.000000
  0
LINE
  8
0
  10
-89.918384
  20
-14.897798
  30
0.000000
  11
-89.831263
  21
-15.333404
  31
0.000000
  0
LINE
  8
0
  10
-89.831263
  20
-15.333404
  30
0.000000
  11
-89.657020
  21
-15.594768
  31
0.000000
  0
LINE
  8
0
  10
-89.657020
  20
-15.594768
  30
0.000000
  11
-89.395657
  21
-15.681889
  31
0.000000
  0
LINE
  8
0
  10
-89.395657
  20
-15.681889
  30
0.000000
  11
-89.221414
  21
-15.681889
  31
0.000000
  0
LINE
  8
0
  10
-89.221414
  20
-15.681889
  30
0.000000
  11
-88.960051
  21
-15.594768
  31
0.000000
  0
LINE
  8
0
  10
-88.960051
  20
-15.594768
  30
0.000000
  11
-88.785808
  21
-15.333404
  31
0.000000
  0
LINE
  8
0
  10
-88.785808
  20
-15.333404
  30
0.000000
  11
-88.698687
  21
-14.897798
  31
0.000000
  0
LINE
  8
0
  10
-88.698687
  20
-14.897798
  30
0.000000
  11
-88.698687
  21
-14.636434
  31
0.000000
  0
LINE
  8
0
  10
-88.698687
  20
-14.636434
  30
0.000000
  11
-88.785808
  21
-14.200828
  31
0.000000
  0
LINE
  8
0
  10
-88.785808
  20
-14.200828
  30
0.000000
  11
-88.960051
  21
-13.939465
  31
0.000000
  0
LINE
  8
0
  10
-88.960051
  20
-13.939465
  30
0.000000
  11
-89.221414
  21
-13.852343
  31
0.000000
  0
LINE
  8
0
  10
-89.221414
  20
-13.852343
  30
0.000000
  11
-89.395657
  21
-13.852343
  31
0.000000
  0
LINE
  8
0
  10
-67.533333
  20
-27.666667
  30
0.000000
  11
-67.533333
  21
-27.666667
  31
0.000000
  0
LINE
  8
0
  10
82.466667
  20
-27.666667
  30
0.000000
  11
82.466667
  21
-27.666667
  31
0.000000
  0
LINE
  8
0
  10
85.592727
  20
-31.355455
  30
0.000000
  11
85.331364
  21
-31.442576
  31
0.000000
  0
LINE
  8
0
  10
85.331364
  20
-31.442576
  30
0.000000
  11
85.157121
  21
-31.703939
  31
0.000000
  0
LINE
  8
0
  10
85.157121
  20
-31.703939
  30
0.000000
  11
85.070000
  21
-32.139545
  31
0.000000
  0
LINE
  8
0
  10
85.070000
  20
-32.139545
  30
0.000000
  11
85.070000
  21
-32.400909
  31
0.000000
  0
LINE
  8
0
  10
85.070000
  20
-32.400909
  30
0.000000
  11
85.157121
  21
-32.836515
  31
0.000000
  0
LINE
  8
0
  10
85.157121
  20
-32.836515
  30
0.000000
  11
85.331364
  21
-33.097879
  31
0.000000
  0
LINE
  8
0
  10
85.331364
  20
-33.097879
  30
0.000000
  11
85.592727
  21
-33.185000
  31
0.000000
  0
LINE
  8
0
  10
85.592727
  20
-33.185000
  30
0.000000
  11
85.766970
  21
-33.185000
  31
0.000000
  0
LINE
  8
0
  10
85.766970
  20
-33.185000
  30
0.000000
  11
86.028333
  21
-33.097879
  31
0.000000
  0
LINE
  8
0
  10
86.028333
  20
-33.097879
  30
0.000000
  11
86.202576
  21
-32.836515
  31
0.000000
  0
LINE
  8
0
  10
86.202576
  20
-32.836515
  30
0.000000
  11
86.289697
  21
-32.400909
  31
0.000000
  0
LINE
  8
0
  10
86.289697
  20
-32.400909
  30
0.000000
  11
86.289697
  21
-32.139545
  31
0.000000
  0
LINE
  8
0
  10
86.289697
  20
-32.139545
  30
0.000000
  11
86.202576
  21
-31.703939
  31
0.000000
  0
LINE
  8
0
  10
86.202576
  20
-31.703939
  30
0.000000
  11
86.028333
  21
-31.442576
  31
0.000000
  0
LINE
  8
0
  10
86.028333
  20
-31.442576
  30
0.000000
  11
85.766970
  21
-31.355455
  31
0.000000
  0
LINE
  8
0
  10
85.766970
  20
-31.355455
  30
0.000000
  11
85.592727
  21
-31.355455
  31
0.000000
  0
LINE
  8
0
  10
86.986667
  20
-33.010758
  30
0.000000
  11
86.899545
  21
-33.097879
  31
0.000000
  0
LINE
  8
0
  10
86.899545
  20
-33.097879
  30
0.000000
  11
86.986667
  21
-33.185000
  31
0.000000
  0
LINE
  8
0
  10
86.986667
  20
-33.185000
  30
0.000000
  11
87.073788
  21
-33.097879
  31
0.000000
  0
LINE
  8
0
  10
87.073788
  20
-33.097879
  30
0.000000
  11
86.986667
  21
-33.010758
  31
0.000000
  0
LINE
  8
0
  10
88.206364
  20
-31.355455
  30
0.000000
  11
87.945000
  21
-31.442576
  31
0.000000
  0
LINE
  8
0
  10
87.945000
  20
-31.442576
  30
0.000000
  11
87.770758
  21
-31.703939
  31
0.000000
  0
LINE
  8
0
  10
87.770758
  20
-31.703939
  30
0.000000
  11
87.683636
  21
-32.139545
  31
0.000000
  0
LINE
  8
0
  10
87.683636
  20
-32.139545
  30
0.000000
  11
87.683636
  21
-32.400909
  31
0.000000
  0
LINE
  8
0
  10
87.683636
  20
-32.400909
  30
0.000000
  11
87.770758
  21
-32.836515
  31
0.000000
  0
LINE
  8
0
  10
87.770758
  20
-32.836515
  30
0.000000
  11
87.945000
  21
-33.097879
  31
0.000000
  0
LINE
  8
0
  10
87.945000
  20
-33.097879
  30
0.000000
  11
88.206364
  21
-33.185000
  31
0.000000
  0
LINE
  8
0
  10
88.206364
  20
-33.185000
  30
0.000000
  11
88.380606
  21
-33.185000
  31
0.000000
  0
LINE
  8
0
  10
88.380606
  20
-33.185000
  30
0.000000
  11
88.641970
  21
-33.097879
  31
0.000000
  0
LINE
  8
0
  10
88.641970
  20
-33.097879
  30
0.000000
  11
88.816212
  21
-32.836515
  31
0.000000
  0
LINE
  8
0
  10
88.816212
  20
-32.836515
  30
0.000000
  11
88.903333
  21
-32.400909
  31
0.000000
  0
LINE
  8
0
  10
88.903333
  20
-32.400909
  30
0.000000
  11
88.903333
  21
-32.139545
  31
0.000000
  0
LINE
  8
0
  10
88.903333
  20
-32.139545
  30
0.000000
  11
88.816212
  21
-31.703939
  31
0.000000
  0
LINE
  8
0
  10
88.816212
  20
-31.703939
  30
0.000000
  11
88.641970
  21
-31.442576
  31
0.000000
  0
LINE
  8
0
  10
88.641970
  20
-31.442576
  30
0.000000
  11
88.380606
  21
-31.355455
  31
0.000000
  0
LINE
  8
0
  10
88.380606
  20
-31.355455
  30
0.000000
  11
88.206364
  21
-31.355455
  31
0.000000
  0
LINE
  8
0
  10
89.948788
  20
-31.355455
  30
0.000000
  11
89.687424
  21
-31.442576
  31
0.000000
  0
LINE
  8
0
  10
89.687424
  20
-31.442576
  30
0.000000
  11
89.513182
  21
-31.703939
  31
0.000000
  0
LINE
  8
0
  10
89.513182
  20
-31.703939
  30
0.000000
  11
89.426061
  21
-32.139545
  31
0.000000
  0
LINE
  8
0
  10
89.426061
  20
-32.139545
  30
0.000000
  11
89.426061
  21
-32.400909
  31
0.000000
  0
LINE
  8
0
  10
89.426061
  20
-32.400909
  30
0.000000
  11
89.513182
  21
-32.836515
  31
0.000000
  0
LINE
  8
0
  10
89.513182
  20
-32.836515
  30
0.000000
  11
89.687424
  21
-33.097879
  31
0.000000
  0
LINE
  8
0
  10
89.687424
  20
-33.097879
  30
0.000000
  11
89.948788
  21
-33.185000
  31
0.000000
  0
LINE
  8
0
  10
89.948788
  20
-33.185000
  30
0.000000
  11
90.123030
  21
-33.185000
  31
0.000000
  0
LINE
  8
0
  10
90.123030
  20
-33.185000
  30
0.000000
  11
90.384394
  21
-33.097879
  31
0.000000
  0
LINE
  8
0
  10
90.384394
  20
-33.097879
  30
0.000000
  11
90.558636
  21
-32.836515
  31
0.000000
  0
LINE
  8
0
  10
90.558636
  20
-32.836515
  30
0.000000
  11
90.645758
  21
-32.400909
  31
0.000000
  0
LINE
  8
0
  10
90.645758
  20
-32.400909
  30
0.000000
  11
90.645758
  21
-32.139545
  31
0.000000
  0
LINE
  8
0
  10
90.645758
  20
-32.139545
  30
0.000000
  11
90.558636
  21
-31.703939
  31
0.000000
  0
LINE
  8
0
  10
90.558636
  20
-31.703939
  30
0.000000
  11
90.384394
  21
-31.442576
  31
0.000000
  0
LINE
  8
0
  10
90.384394
  20
-31.442576
  30
0.000000
  11
90.123030
  21
-31.355455
  31
0.000000
  0
LINE
  8
0
  10
90.123030
  20
-31.355455
  30
0.000000
  11
89.948788
  21
-31.355455
  31
0.000000
  0
LINE
  8
0
  10
92.466667
  20
-27.666667
  30
0.000000
  11
92.466667
  21
-27.666667
  31
0.000000
  0
LINE
  8
0
  10
82.466667
  20
-17.666667
  30
0.000000
  11
82.466667
  21
-17.666667
  31
0.000000
  0
LINE
  8
0
  10
97.152727
  20
-21.555455
  30
0.000000
  11
96.891364
  21
-21.642576
  31
0.000000
  0
LINE
  8
0
  10
96.891364
  20
-21.642576
  30
0.000000
  11
96.717121
  21
-21.903939
  31
0.000000
  0
LINE
  8
0
  10
96.717121
  20
-21.903939
  30
0.000000
  11
96.630000
  21
-22.339545
  31
0.000000
  0
LINE
  8
0
  10
96.630000
  20
-22.339545
  30
0.000000
  11
96.630000
  21
-22.600909
  31
0.000000
  0
LINE
  8
0
  10
96.630000
  20
-22.600909
  30
0.000000
  11
96.717121
  21
-23.036515
  31
0.000000
  0
LINE
  8
0
  10
96.717121
  20
-23.036515
  30
0.000000
  11
96.891364
  21
-23.297879
  31
0.000000
  0
LINE
  8
0
  10
96.891364
  20
-23.297879
  30
0.000000
  11
97.152727
  21
-23.385000
  31
0.000000
  0
LINE
  8
0
  10
97.152727
  20
-23.385000
  30
0.000000
  11
97.326970
  21
-23.385000
  31
0.000000
  0
LINE
  8
0
  10
97.326970
  20
-23.385000
  30
0.000000
  11
97.588333
  21
-23.297879
  31
0.000000
  0
LINE
  8
0
  10
97.588333
  20
-23.297879
  30
0.000000
  11
97.762576
  21
-23.036515
  31
0.000000
  0
LINE
  8
0
  10
97.762576
  20
-23.036515
  30
0.000000
  11
97.849697
  21
-22.600909
  31
0.000000
  0
LINE
  8
0
  10
97.849697
  20
-22.600909
  30
0.000000
  11
97.849697
  21
-22.339545
  31
0.000000
  0
LINE
  8
0
  10
97.849697
  20
-22.339545
  30
0.000000
  11
97.762576
  21
-21.903939
  31
0.000000
  0
LINE
  8
0
  10
97.762576
  20
-21.903939
  30
0.000000
  11
97.588333
  21
-21.642576
  31
0.000000
  0
LINE
  8
0
  10
97.588333
  20
-21.642576
  30
0.000000
  11
97.326970
  21
-21.555455
  31
0.000000
  0
LINE
  8
0
  10
97.326970
  20
-21.555455
  30
0.000000
  11
97.152727
  21
-21.555455
  31
0.000000
  0
LINE
  8
0
  10
98.546667
  20
-23.210758
  30
0.000000
  11
98.459545
  21
-23.297879
  31
0.000000
  0
LINE
  8
0
  10
98.459545
  20
-23.297879
  30
0.000000
  11
98.546667
  21
-23.385000
  31
0.000000
  0
LINE
  8
0
  10
98.546667
  20
-23.385000
  30
0.000000
  11
98.633788
  21
-23.297879
  31
0.000000
  0
LINE
  8
0
  10
98.633788
  20
-23.297879
  30
0.000000
  11
98.546667
  21
-23.210758
  31
0.000000
  0
LINE
  8
0
  10
99.766364
  20
-21.555455
  30
0.000000
  11
99.505000
  21
-21.642576
  31
0.000000
  0
LINE
  8
0
  10
99.505000
  20
-21.642576
  30
0.000000
  11
99.330758
  21
-21.903939
  31
0.000000
  0
LINE
  8
0
  10
99.330758
  20
-21.903939
  30
0.000000
  11
99.243636
  21
-22.339545
  31
0.000000
  0
LINE
  8
0
  10
99.243636
  20
-22.339545
  30
0.000000
  11
99.243636
  21
-22.600909
  31
0.000000
  0
LINE
  8
0
  10
99.243636
  20
-22.600909
  30
0.000000
  11
99.330758
  21
-23.036515
  31
0.000000
  0
LINE
  8
0
  10
99.330758
  20
-23.036515
  30
0.000000
  11
99.505000
  21
-23.297879
  31
0.000000
  0
LINE
  8
0
  10
99.505000
  20
-23.297879
  30
0.000000
  11
99.766364
  21
-23.385000
  31
0.000000
  0
LINE
  8
0
  10
99.766364
  20
-23.385000
  30
0.000000
  11
99.940606
  21
-23.385000
  31
0.000000
  0
LINE
  8
0
  10
99.940606
  20
-23.385000
  30
0.000000
  11
100.201970
  21
-23.297879
  31
0.000000
  0
LINE
  8
0
  10
100.201970
  20
-23.297879
  30
0.000000
  11
100.376212
  21
-23.036515
  31
0.000000
  0
LINE
  8
0
  10
100.376212
  20
-23.036515
  30
0.000000
  11
100.463333
  21
-22.600909
  31
0.000000
  0
LINE
  8
0
  10
100.463333
  20
-22.600909
  30
0.000000
  11
100.463333
  21
-22.339545
  31
0.000000
  0
LINE
  8
0
  10
100.463333
  20
-22.339545
  30
0.000000
  11
100.376212
  21
-21.903939
  31
0.000000
  0
LINE
  8
0
  10
100.376212
  20
-21.903939
  30
0.000000
  11
100.201970
  21
-21.642576
  31
0.000000
  0
LINE
  8
0
  10
100.201970
  20
-21.642576
  30
0.000000
  11
99.940606
  21
-21.555455
  31
0.000000
  0
LINE
  8
0
  10
99.940606
  20
-21.555455
  30
0.000000
  11
99.766364
  21
-21.555455
  31
0.000000
  0
LINE
  8
0
  10
101.508788
  20
-21.555455
  30
0.000000
  11
101.247424
  21
-21.642576
  31
0.000000
  0
LINE
  8
0
  10
101.247424
  20
-21.642576
  30
0.000000
  11
101.073182
  21
-21.903939
  31
0.000000
  0
LINE
  8
0
  10
101.073182
  20
-21.903939
  30
0.000000
  11
100.986061
  21
-22.339545
  31
0.000000
  0
LINE
  8
0
  10
100.986061
  20
-22.339545
  30
0.000000
  11
100.986061
  21
-22.600909
  31
0.000000
  0
LINE
  8
0
  10
100.986061
  20
-22.600909
  30
0.000000
  11
101.073182
  21
-23.036515
  31
0.000000
  0
LINE
  8
0
  10
101.073182
  20
-23.036515
  30
0.000000
  11
101.247424
  21
-23.297879
  31
0.000000
  0
LINE
  8
0
  10
101.247424
  20
-23.297879
  30
0.000000
  11
101.508788
  21
-23.385000
  31
0.000000
  0
LINE
  8
0
  10
101.508788
  20
-23.385000
  30
0.000000
  11
101.683030
  21
-23.385000
  31
0.000000
  0
LINE
  8
0
  10
101.683030
  20
-23.385000
  30
0.000000
  11
101.944394
  21
-23.297879
  31
0.000000
  0
LINE
  8
0
  10
101.944394
  20
-23.297879
  30
0.000000
  11
102.118636
  21
-23.036515
  31
0.000000
  0
LINE
  8
0
  10
102.118636
  20
-23.036515
  30
0.000000
  11
102.205758
  21
-22.600909
  31
0.000000
  0
LINE
  8
0
  10
102.205758
  20
-22.600909
  30
0.000000
  11
102.205758
  21
-22.339545
  31
0.000000
  0
LINE
  8
0
  10
102.205758
  20
-22.339545
  30
0.000000
  11
102.118636
  21
-21.903939
  31
0.000000
  0
LINE
  8
0
  10
102.118636
  20
-21.903939
  30
0.000000
  11
101.944394
  21
-21.642576
  31
0.000000
  0
LINE
  8
0
  10
101.944394
  20
-21.642576
  30
0.000000
  11
101.683030
  21
-21.555455
  31
0.000000
  0
LINE
  8
0
  10
101.683030
  20
-21.555455
  30
0.000000
  11
101.508788
  21
-21.555455
  31
0.000000
  0
LINE
  8
0
  10
82.466667
  20
-27.666667
  30
0.000000
  11
82.466667
  21
-27.666667
  31
0.000000
  0
LINE
  8
0
  10
82.466667
  20
2.333333
  30
0.000000
  11
82.466667
  21
2.333333
  31
0.000000
  0
LINE
  8
0
  10
106.752727
  20
-9.875455
  30
0.000000
  11
106.491364
  21
-9.962576
  31
0.000000
  0
LINE
  8
0
  10
106.491364
  20
-9.962576
  30
0.000000
  11
106.317121
  21
-10.223939
  31
0.000000
  0
LINE
  8
0
  10
106.317121
  20
-10.223939
  30
0.000000
  11
106.230000
  21
-10.659545
  31
0.000000
  0
LINE
  8
0
  10
106.230000
  20
-10.659545
  30
0.000000
  11
106.230000
  21
-10.920909
  31
0.000000
  0
LINE
  8
0
  10
106.230000
  20
-10.920909
  30
0.000000
  11
106.317121
  21
-11.356515
  31
0.000000
  0
LINE
  8
0
  10
106.317121
  20
-11.356515
  30
0.000000
  11
106.491364
  21
-11.617879
  31
0.000000
  0
LINE
  8
0
  10
106.491364
  20
-11.617879
  30
0.000000
  11
106.752727
  21
-11.705000
  31
0.000000
  0
LINE
  8
0
  10
106.752727
  20
-11.705000
  30
0.000000
  11
106.926970
  21
-11.705000
  31
0.000000
  0
LINE
  8
0
  10
106.926970
  20
-11.705000
  30
0.000000
  11
107.188333
  21
-11.617879
  31
0.000000
  0
LINE
  8
0
  10
107.188333
  20
-11.617879
  30
0.000000
  11
107.362576
  21
-11.356515
  31
0.000000
  0
LINE
  8
0
  10
107.362576
  20
-11.356515
  30
0.000000
  11
107.449697
  21
-10.920909
  31
0.000000
  0
LINE
  8
0
  10
107.449697
  20
-10.920909
  30
0.000000
  11
107.449697
  21
-10.659545
  31
0.000000
  0
LINE
  8
0
  10
107.449697
  20
-10.659545
  30
0.000000
  11
107.362576
  21
-10.223939
  31
0.000000
  0
LINE
  8
0
  10
107.362576
  20
-10.223939
  30
0.000000
  11
107.188333
  21
-9.962576
  31
0.000000
  0
LINE
  8
0
  10
107.188333
  20
-9.962576
  30
0.000000
  11
106.926970
  21
-9.875455
  31
0.000000
  0
LINE
  8
0
  10
106.926970
  20
-9.875455
  30
0.000000
  11
106.752727
  21
-9.875455
  31
0.000000
  0
LINE
  8
0
  10
108.146667
  20
-11.530758
  30
0.000000
  11
108.059545
  21
-11.617879
  31
0.000000
  0
LINE
  8
0
  10
108.059545
  20
-11.617879
  30
0.000000
  11
108.146667
  21
-11.705000
  31
0.000000
  0
LINE
  8
0
  10
108.146667
  20
-11.705000
  30
0.000000
  11
108.233788
  21
-11.617879
  31
0.000000
  0
LINE
  8
0
  10
108.233788
  20
-11.617879
  30
0.000000
  11
108.146667
  21
-11.530758
  31
0.000000
  0
LINE
  8
0
  10
109.366364
  20
-9.875455
  30
0.000000
  11
109.105000
  21
-9.962576
  31
0.000000
  0
LINE
  8
0
  10
109.105000
  20
-9.962576
  30
0.000000
  11
108.930758
  21
-10.223939
  31
0.000000
  0
LINE
  8
0
  10
108.930758
  20
-10.223939
  30
0.000000
  11
108.843636
  21
-10.659545
  31
0.000000
  0
LINE
  8
0
  10
108.843636
  20
-10.659545
  30
0.000000
  11
108.843636
  21
-10.920909
  31
0.000000
  0
LINE
  8
0
  10
108.843636
  20
-10.920909
  30
0.000000
  11
108.930758
  21
-11.356515
  31
0.000000
  0
LINE
  8
0
  10
108.930758
  20
-11.356515
  30
0.000000
  11
109.105000
  21
-11.617879
  31
0.000000
  0
LINE
  8
0
  10
109.105000
  20
-11.617879
  30
0.000000
  11
109.366364
  21
-11.705000
  31
0.000000
  0
LINE
  8
0
  10
109.366364
  20
-11.705000
  30
0.000000
  11
109.540606
  21
-11.705000
  31
0.000000
  0
LINE
  8
0
  10
109.540606
  20
-11.705000
  30
0.000000
  11
109.801970
  21
-11.617879
  31
0.000000
  0
LINE
  8
0
  10
109.801970
  20
-11.617879
  30
0.000000
  11
109.976212
  21
-11.356515
  31
0.000000
  0
LINE
  8
0
  10
109.976212
  20
-11.356515
  30
0.000000
  11
110.063333
  21
-10.920909
  31
0.000000
  0
LINE
  8
0
  10
110.063333
  20
-10.920909
  30
0.000000
  11
110.063333
  21
-10.659545
  31
0.000000
  0
LINE
  8
0
  10
110.063333
  20
-10.659545
  30
0.000000
  11
109.976212
  21
-10.223939
  31
0.000000
  0
LINE
  8
0
  10
109.976212
  20
-10.223939
  30
0.000000
  11
109.801970
  21
-9.962576
  31
0.000000
  0
LINE
  8
0
  10
109.801970
  20
-9.962576
  30
0.000000
  11
109.540606
  21
-9.875455
  31
0.000000
  0
LINE
  8
0
  10
109.540606
  20
-9.875455
  30
0.000000
  11
109.366364
  21
-9.875455
  31
0.000000
  0
LINE
  8
0
  10
111.108788
  20
-9.875455
  30
0.000000
  11
110.847424
  21
-9.962576
  31
0.000000
  0
LINE
  8
0
  10
110.847424
  20
-9.962576
  30
0.000000
  11
110.673182
  21
-10.223939
  31
0.000000
  0
LINE
  8
0
  10
110.673182
  20
-10.223939
  30
0.000000
  11
110.586061
  21
-10.659545
  31
0.000000
  0
LINE
  8
0
  10
110.586061
  20
-10.659545
  30
0.000000
  11
110.586061
  21
-10.920909
  31
0.000000
  0
LINE
  8
0
  10
110.586061
  20
-10.920909
  30
0.000000
  11
110.673182
  21
-11.356515
  31
0.000000
  0
LINE
  8
0
  10
110.673182
  20
-11.356515
  30
0.000000
  11
110.847424
  21
-11.617879
  31
0.000000
  0
LINE
  8
0
  10
110.847424
  20
-11.617879
  30
0.000000
  11
111.108788
  21
-11.705000
  31
0.000000
  0
LINE
  8
0
  10
111.108788
  20
-11.705000
  30
0.000000
  11
111.283030
  21
-11.705000
  31
0.000000
  0
LINE
  8
0
  10
111.283030
  20
-11.705000
  30
0.000000
  11
111.544394
  21
-11.617879
  31
0.000000
  0
LINE
  8
0
  10
111.544394
  20
-11.617879
  30
0.000000
  11
111.718636
  21
-11.356515
  31
0.000000
  0
LINE
  8
0
  10
111.718636
  20
-11.356515
  30
0.000000
  11
111.805758
  21
-10.920909
  31
0.000000
  0
LINE
  8
0
  10
111.805758
  20
-10.920909
  30
0.000000
  11
111.805758
  21
-10.659545
  31
0.000000
  0
LINE
  8
0
  10
111.805758
  20
-10.659545
  30
0.000000
  11
111.718636
  21
-10.223939
  31
0.000000
  0
LINE
  8
0
  10
111.718636
  20
-10.223939
  30
0.000000
  11
111.544394
  21
-9.962576
  31
0.000000
  0
LINE
  8
0
  10
111.544394
  20
-9.962576
  30
0.000000
  11
111.283030
  21
-9.875455
  31
0.000000
  0
LINE
  8
0
  10
111.283030
  20
-9.875455
  30
0.000000
  11
111.108788
  21
-9.875455
  31
0.000000
  0
LINE
  8
0
  10
82.466667
  20
-27.666667
  30
0.000000
  11
82.466667
  21
-27.666667
  31
0.000000
  0
LINE
  8
0
  10
-57.533333
  20
-17.666667
  30
0.000000
  11
-57.533333
  21
-17.666667
  31
0.000000
  0
LINE
  8
0
  10
-69.127273
  20
-35.795455
  30
0.000000
  11
-69.388636
  21
-35.882576
  31
0.000000
  0
LINE
  8
0
  10
-69.388636
  20
-35.882576
  30
0.000000
  11
-69.562879
  21
-36.143939
  31
0.000000
  0
LINE
  8
0
  10
-69.562879
  20
-36.143939
  30
0.000000
  11
-69.650000
  21
-36.579545
  31
0.000000
  0
LINE
  8
0
  10
-69.650000
  20
-36.579545
  30
0.000000
  11
-69.650000
  21
-36.840909
  31
0.000000
  0
LINE
  8
0
  10
-69.650000
  20
-36.840909
  30
0.000000
  11
-69.562879
  21
-37.276515
  31
0.000000
  0
LINE
  8
0
  10
-69.562879
  20
-37.276515
  30
0.000000
  11
-69.388636
  21
-37.537879
  31
0.000000
  0
LINE
  8
0
  10
-69.388636
  20
-37.537879
  30
0.000000
  11
-69.127273
  21
-37.625000
  31
0.000000
  0
LINE
  8
0
  10
-69.127273
  20
-37.625000
  30
0.000000
  11
-68.953030
  21
-37.625000
  31
0.000000
  0
LINE
  8
0
  10
-68.953030
  20
-37.625000
  30
0.000000
  11
-68.691667
  21
-37.537879
  31
0.000000
  0
LINE
  8
0
  10
-68.691667
  20
-37.537879
  30
0.000000
  11
-68.517424
  21
-37.276515
  31
0.000000
  0
LINE
  8
0
  10
-68.517424
  20
-37.276515
  30
0.000000
  11
-68.430303
  21
-36.840909
  31
0.000000
  0
LINE
  8
0
  10
-68.430303
  20
-36.840909
  30
0.000000
  11
-68.430303
  21
-36.579545
  31
0.000000
  0
LINE
  8
0
  10
-68.430303
  20
-36.579545
  30
0.000000
  11
-68.517424
  21
-36.143939
  31
0.000000
  0
LINE
  8
0
  10
-68.517424
  20
-36.143939
  30
0.000000
  11
-68.691667
  21
-35.882576
  31
0.000000
  0
LINE
  8
0
  10
-68.691667
  20
-35.882576
  30
0.000000
  11
-68.953030
  21
-35.795455
  31
0.000000
  0
LINE
  8
0
  10
-68.953030
  20
-35.795455
  30
0.000000
  11
-69.127273
  21
-35.795455
  31
0.000000
  0
LINE
  8
0
  10
-67.733333
  20
-37.450758
  30
0.000000
  11
-67.820455
  21
-37.537879
  31
0.000000
  0
LINE
  8
0
  10
-67.820455
  20
-37.537879
  30
0.000000
  11
-67.733333
  21
-37.625000
  31
0.000000
  0
LINE
  8
0
  10
-67.733333
  20
-37.625000
  30
0.000000
  11
-67.646212
  21
-37.537879
  31
0.000000
  0
LINE
  8
0
  10
-67.646212
  20
-37.537879
  30
0.000000
  11
-67.733333
  21
-37.450758
  31
0.000000
  0
LINE
  8
0
  10
-66.513636
  20
-35.795455
  30
0.000000
  11
-66.775000
  21
-35.882576
  31
0.000000
  0
LINE
  8
0
  10
-66.775000
  20
-35.882576
  30
0.000000
  11
-66.949242
  21
-36.143939
  31
0.000000
  0
LINE
  8
0
  10
-66.949242
  20
-36.143939
  30
0.000000
  11
-67.036364
  21
-36.579545
  31
0.000000
  0
LINE
  8
0
  10
-67.036364
  20
-36.579545
  30
0.000000
  11
-67.036364
  21
-36.840909
  31
0.000000
  0
LINE
  8
0
  10
-67.036364
  20
-36.840909
  30
0.000000
  11
-66.949242
  21
-37.276515
  31
0.000000
  0
LINE
  8
0
  10
-66.949242
  20
-37.276515
  30
0.000000
  11
-66.775000
  21
-37.537879
  31
0.000000
  0
LINE
  8
0
  10
-66.775000
  20
-37.537879
  30
0.000000
  11
-66.513636
  21
-37.625000
  31
0.000000
  0
LINE
  8
0
  10
-66.513636
  20
-37.625000
  30
0.000000
  11
-66.339394
  21
-37.625000
  31
0.000000
  0
LINE
  8
0
  10
-66.339394
  20
-37.625000
  30
0.000000
  11
-66.078030
  21
-37.537879
  31
0.000000
  0
LINE
  8
0
  10
-66.078030
  20
-37.537879
  30
0.000000
  11
-65.903788
  21
-37.276515
  31
0.000000
  0
LINE
  8
0
  10
-65.903788
  20
-37.276515
  30
0.000000
  11
-65.816667
  21
-36.840909
  31
0.000000
  0
LINE
  8
0
  10
-65.816667
  20
-36.840909
  30
0.000000
  11
-65.816667
  21
-36.579545
  31
0.000000
  0
LINE
  8
0
  10
-65.816667
  20
-36.579545
  30
0.000000
  11
-65.903788
  21
-36.143939
  31
0.000000
  0
LINE
  8
0
  10
-65.903788
  20
-36.143939
  30
0.000000
  11
-66.078030
  21
-35.882576
  31
0.000000
  0
LINE
  8
0
  10
-66.078030
  20
-35.882576
  30
0.000000
  11
-66.339394
  21
-35.795455
  31
0.000000
  0
LINE
  8
0
  10
-66.339394
  20
-35.795455
  30
0.000000
  11
-66.513636
  21
-35.795455
  31
0.000000
  0
LINE
  8
0
  10
-64.771212
  20
-35.795455
  30
0.000000
  11
-65.032576
  21
-35.882576
  31
0.000000
  0
LINE
  8
0
  10
-65.032576
  20
-35.882576
  30
0.000000
  11
-65.206818
  21
-36.143939
  31
0.000000
  0
LINE
  8
0
  10
-65.206818
  20
-36.143939
  30
0.000000
  11
-65.293939
  21
-36.579545
  31
0.000000
  0
LINE
  8
0
  10
-65.293939
  20
-36.579545
  30
0.000000
  11
-65.293939
  21
-36.840909
  31
0.000000
  0
LINE
  8
0
  10
-65.293939
  20
-36.840909
  30
0.000000
  11
-65.206818
  21
-37.276515
  31
0.000000
  0
LINE
  8
0
  10
-65.206818
  20
-37.276515
  30
0.000000
  11
-65.032576
  21
-37.537879
  31
0.000000
  0
LINE
  8
0
  10
-65.032576
  20
-37.537879
  30
0.000000
  11
-64.771212
  21
-37.625000
  31
0.000000
  0
LINE
  8
0
  10
-64.771212
  20
-37.625000
  30
0.000000
  11
-64.596970
  21
-37.625000
  31
0.000000
  0
LINE
  8
0
  10
-64.596970
  20
-37.625000
  30
0.000000
  11
-64.335606
  21
-37.537879
  31
0.000000
  0
LINE
  8
0
  10
-64.335606
  20
-37.537879
  30
0.000000
  11
-64.161364
  21
-37.276515
  31
0.000000
  0
LINE
  8
0
  10
-64.161364
  20
-37.276515
  30
0.000000
  11
-64.074242
  21
-36.840909
  31
0.000000
  0
LINE
  8
0
  10
-64.074242
  20
-36.840909
  30
0.000000
  11
-64.074242
  21
-36.579545
  31
0.000000
  0
LINE
  8
0
  10
-64.074242
  20
-36.579545
  30
0.000000
  11
-64.161364
  21
-36.143939
  31
0.000000
  0
LINE
  8
0
  10
-64.161364
  20
-36.143939
  30
0.000000
  11
-64.335606
  21
-35.882576
  31
0.000000
  0
LINE
  8
0
  10
-64.335606
  20
-35.882576
  30
0.000000
  11
-64.596970
  21
-35.795455
  31
0.000000
  0
LINE
  8
0
  10
-64.596970
  20
-35.795455
  30
0.000000
  11
-64.771212
  21
-35.795455
  31
0.000000
  0
LINE
  8
0
  10
-77.533333
  20
-17.666667
  30
0.000000
  11
-77.533333
  21
-17.666667
  31
0.000000
  0
LINE
  8
0
  10
-57.533333
  20
-17.666667
  30
0.000000
  11
-57.533333
  21
-17.666667
  31
0.000000
  0
LINE
  8
0
  10
-57.533333
  20
-27.666667
  30
0.000000
  11
-57.533333
  21
-27.666667
  31
0.000000
  0
LINE
  8
0
  10
-56.533333
  20
-1.818740
  30
0.000000
  11
-58.533333
  21
-1.818740
  31
0.000000
  0
LINE
  8
0
  10
-58.533333
  20
-1.818740
  30
0.000000
  11
-58.533333
  21
-3.818740
  31
0.000000
  0
LINE
  8
0
  10
-58.533333
  20
-3.818740
  30
0.000000
  11
-56.533333
  21
-3.818740
  31
0.000000
  0
LINE
  8
0
  10
-56.533333
  20
-3.818740
  30
0.000000
  11
-56.533333
  21
-1.818740
  31
0.000000
  0
LINE
  8
0
  10
-55.033333
  20
-16.666667
  30
0.000000
  11
-57.033333
  21
-16.666667
  31
0.000000
  0
LINE
  8
0
  10
-57.033333
  20
-16.666667
  30
0.000000
  11
-57.033333
  21
-18.666667
  31
0.000000
  0
LINE
  8
0
  10
-57.033333
  20
-18.666667
  30
0.000000
  11
-55.033333
  21
-18.666667
  31
0.000000
  0
LINE
  8
0
  10
-55.033333
  20
-18.666667
  30
0.000000
  11
-55.033333
  21
-16.666667
  31
0.000000
  0
LINE
  8
0
  10
-56.533333
  20
-15.166667
  30
0.000000
  11
-58.533333
  21
-15.166667
  31
0.000000
  0
LINE
  8
0
  10
-58.533333
  20
-15.166667
  30
0.000000
  11
-58.533333
  21
-17.166667
  31
0.000000
  0
LINE
  8
0
  10
-58.533333
  20
-17.166667
  30
0.000000
  11
-56.533333
  21
-17.166667
  31
0.000000
  0
LINE
  8
0
  10
-56.533333
  20
-17.166667
  30
0.000000
  11
-56.533333
  21
-15.166667
  31
0.000000
  0
LINE
  8
0
  10
-57.643530
  20
-0.092012
  30
0.000000
  11
-55.948586
  21
-2.962252
  31
0.000000
  0
LINE
  8
0
  10
-55.948586
  20
-2.962252
  30
0.000000
  11
-57.643530
  21
-0.092012
  31
0.000000
  0
LINE
  8
0
  10
-17.313259
  20
-16.504876
  30
0.000000
  11
-20.627527
  21
-16.148866
  31
0.000000
  0
LINE
  8
0
  10
-20.627527
  20
-16.148866
  30
0.000000
  11
-17.313259
  21
-16.504876
  31
0.000000
  0
LINE
  8
0
  10
36.395147
  20
-16.666667
  30
0.000000
  11
34.395147
  21
-16.666667
  31
0.000000
  0
LINE
  8
0
  10
34.395147
  20
-16.666667
  30
0.000000
  11
34.395147
  21
-18.666667
  31
0.000000
  0
LINE
  8
0
  10
34.395147
  20
-18.666667
  30
0.000000
  11
36.395147
  21
-18.666667
  31
0.000000
  0
LINE
  8
0
  10
36.395147
  20
-18.666667
  30
0.000000
  11
36.395147
  21
-16.666667
  31
0.000000
  0
LINE
  8
0
  10
-57.643530
  20
-0.092012
  30
0.000000
  11
-55.948586
  21
-2.962252
  31
0.000000
  0
LINE
  8
0
  10
-55.948586
  20
-2.962252
  30
0.000000
  11
-57.643530
  21
-0.092012
  31
0.000000
  0
LINE
  8
0
  10
72.466667
  20
-17.666667
  30
0.000000
  11
72.466667
  21
-17.666667
  31
0.000000
  0
LINE
  8
0
  10
72.466667
  20
-17.666667
  30
0.000000
  11
72.466667
  21
-17.666667
  31
0.000000
  0
LINE
  8
0
  10
72.466667
  20
-17.666667
  30
0.000000
  11
72.466667
  21
-19.727289
  31
0.000000
  0
LINE
  8
0
  10
72.466667
  20
-19.727289
  30
0.000000
  11
72.466667
  21
-17.666667
  31
0.000000
  0
LINE
  8
0
  10
72.466667
  20
-17.666667
  30
0.000000
  11
72.466667
  21
-17.666667
  31
0.000000
  0
LINE
  8
0
  10
81.600505
  20
-36.323232
  30
0.000000
  11
81.339141
  21
-36.410354
  31
0.000000
  0
LINE
  8
0
  10
81.339141
  20
-36.410354
  30
0.000000
  11
81.164899
  21
-36.671717
  31
0.000000
  0
LINE
  8
0
  10
81.164899
  20
-36.671717
  30
0.000000
  11
81.077778
  21
-37.107323
  31
0.000000
  0
LINE
  8
0
  10
81.077778
  20
-37.107323
  30
0.000000
  11
81.077778
  21
-37.368687
  31
0.000000
  0
LINE
  8
0
  10
81.077778
  20
-37.368687
  30
0.000000
  11
81.164899
  21
-37.804293
  31
0.000000
  0
LINE
  8
0
  10
81.164899
  20
-37.804293
  30
0.000000
  11
81.339141
  21
-38.065657
  31
0.000000
  0
LINE
  8
0
  10
81.339141
  20
-38.065657
  30
0.000000
  11
81.600505
  21
-38.152778
  31
0.000000
  0
LINE
  8
0
  10
81.600505
  20
-38.152778
  30
0.000000
  11
81.774747
  21
-38.152778
  31
0.000000
  0
LINE
  8
0
  10
81.774747
  20
-38.152778
  30
0.000000
  11
82.036111
  21
-38.065657
  31
0.000000
  0
LINE
  8
0
  10
82.036111
  20
-38.065657
  30
0.000000
  11
82.210354
  21
-37.804293
  31
0.000000
  0
LINE
  8
0
  10
82.210354
  20
-37.804293
  30
0.000000
  11
82.297475
  21
-37.368687
  31
0.000000
  0
LINE
  8
0
  10
82.297475
  20
-37.368687
  30
0.000000
  11
82.297475
  21
-37.107323
  31
0.000000
  0
LINE
  8
0
  10
82.297475
  20
-37.107323
  30
0.000000
  11
82.210354
  21
-36.671717
  31
0.000000
  0
LINE
  8
0
  10
82.210354
  20
-36.671717
  30
0.000000
  11
82.036111
  21
-36.410354
  31
0.000000
  0
LINE
  8
0
  10
82.036111
  20
-36.410354
  30
0.000000
  11
81.774747
  21
-36.323232
  31
0.000000
  0
LINE
  8
0
  10
81.774747
  20
-36.323232
  30
0.000000
  11
81.600505
  21
-36.323232
  31
0.000000
  0
LINE
  8
0
  10
82.994444
  20
-37.978535
  30
0.000000
  11
82.907323
  21
-38.065657
  31
0.000000
  0
LINE
  8
0
  10
82.907323
  20
-38.065657
  30
0.000000
  11
82.994444
  21
-38.152778
  31
0.000000
  0
LINE
  8
0
  10
82.994444
  20
-38.152778
  30
0.000000
  11
83.081566
  21
-38.065657
  31
0.000000
  0
LINE
  8
0
  10
83.081566
  20
-38.065657
  30
0.000000
  11
82.994444
  21
-37.978535
  31
0.000000
  0
LINE
  8
0
  10
84.214141
  20
-36.323232
  30
0.000000
  11
83.952778
  21
-36.410354
  31
0.000000
  0
LINE
  8
0
  10
83.952778
  20
-36.410354
  30
0.000000
  11
83.778535
  21
-36.671717
  31
0.000000
  0
LINE
  8
0
  10
83.778535
  20
-36.671717
  30
0.000000
  11
83.691414
  21
-37.107323
  31
0.000000
  0
LINE
  8
0
  10
83.691414
  20
-37.107323
  30
0.000000
  11
83.691414
  21
-37.368687
  31
0.000000
  0
LINE
  8
0
  10
83.691414
  20
-37.368687
  30
0.000000
  11
83.778535
  21
-37.804293
  31
0.000000
  0
LINE
  8
0
  10
83.778535
  20
-37.804293
  30
0.000000
  11
83.952778
  21
-38.065657
  31
0.000000
  0
LINE
  8
0
  10
83.952778
  20
-38.065657
  30
0.000000
  11
84.214141
  21
-38.152778
  31
0.000000
  0
LINE
  8
0
  10
84.214141
  20
-38.152778
  30
0.000000
  11
84.388384
  21
-38.152778
  31
0.000000
  0
LINE
  8
0
  10
84.388384
  20
-38.152778
  30
0.000000
  11
84.649747
  21
-38.065657
  31
0.000000
  0
LINE
  8
0
  10
84.649747
  20
-38.065657
  30
0.000000
  11
84.823990
  21
-37.804293
  31
0.000000
  0
LINE
  8
0
  10
84.823990
  20
-37.804293
  30
0.000000
  11
84.911111
  21
-37.368687
  31
0.000000
  0
LINE
  8
0
  10
84.911111
  20
-37.368687
  30
0.000000
  11
84.911111
  21
-37.107323
  31
0.000000
  0
LINE
  8
0
  10
84.911111
  20
-37.107323
  30
0.000000
  11
84.823990
  21
-36.671717
  31
0.000000
  0
LINE
  8
0
  10
84.823990
  20
-36.671717
  30
0.000000
  11
84.649747
  21
-36.410354
  31
0.000000
  0
LINE
  8
0
  10
84.649747
  20
-36.410354
  30
0.000000
  11
84.388384
  21
-36.323232
  31
0.000000
  0
LINE
  8
0
  10
84.388384
  20
-36.323232
  30
0.000000
  11
84.214141
  21
-36.323232
  31
0.000000
  0
LINE
  8
0
  10
85.956566
  20
-36.323232
  30
0.000000
  11
85.695202
  21
-36.410354
  31
0.000000
  0
LINE
  8
0
  10
85.695202
  20
-36.410354
  30
0.000000
  11
85.520960
  21
-36.671717
  31
0.000000
  0
LINE
  8
0
  10
85.520960
  20
-36.671717
  30
0.000000
  11
85.433838
  21
-37.107323
  31
0.000000
  0
LINE
  8
0
  10
85.433838
  20
-37.107323
  30
0.000000
  11
85.433838
  21
-37.368687
  31
0.000000
  0
LINE
  8
0
  10
85.433838
  20
-37.368687
  30
0.000000
  11
85.520960
  21
-37.804293
  31
0.000000
  0
LINE
  8
0
  10
85.520960
  20
-37.804293
  30
0.000000
  11
85.695202
  21
-38.065657
  31
0.000000
  0
LINE
  8
0
  10
85.695202
  20
-38.065657
  30
0.000000
  11
85.956566
  21
-38.152778
  31
0.000000
  0
LINE
  8
0
  10
85.956566
  20
-38.152778
  30
0.000000
  11
86.130808
  21
-38.152778
  31
0.000000
  0
LINE
  8
0
  10
86.130808
  20
-38.152778
  30
0.000000
  11
86.392172
  21
-38.065657
  31
0.000000
  0
LINE
  8
0
  10
86.392172
  20
-38.065657
  30
0.000000
  11
86.566414
  21
-37.804293
  31
0.000000
  0
LINE
  8
0
  10
86.566414
  20
-37.804293
  30
0.000000
  11
86.653535
  21
-37.368687
  31
0.000000
  0
LINE
  8
0
  10
86.653535
  20
-37.368687
  30
0.000000
  11
86.653535
  21
-37.107323
  31
0.000000
  0
LINE
  8
0
  10
86.653535
  20
-37.107323
  30
0.000000
  11
86.566414
  21
-36.671717
  31
0.000000
  0
LINE
  8
0
  10
86.566414
  20
-36.671717
  30
0.000000
  11
86.392172
  21
-36.410354
  31
0.000000
  0
LINE
  8
0
  10
86.392172
  20
-36.410354
  30
0.000000
  11
86.130808
  21
-36.323232
  31
0.000000
  0
LINE
  8
0
  10
86.130808
  20
-36.323232
  30
0.000000
  11
85.956566
  21
-36.323232
  31
0.000000
  0
LINE
  8
0
  10
92.466667
  20
-17.666667
  30
0.000000
  11
92.466667
  21
-17.666667
  31
0.000000
  0
LINE
  8
0
  10
72.466667
  20
-17.666667
  30
0.000000
  11
72.466667
  21
-17.666667
  31
0.000000
  0
LINE
  8
0
  10
72.466667
  20
-0.249969
  30
0.000000
  11
72.466667
  21
-0.249969
  31
0.000000
  0
LINE
  8
0
  10
-57.533333
  20
-0.249969
  30
0.000000
  11
-57.533333
  21
-0.249969
  31
0.000000
  0
LINE
  8
0
  10
-57.533333
  20
-17.666667
  30
0.000000
  11
-57.533333
  21
-17.666667
  31
0.000000
  0
LINE
  8
0
  10
-66.533333
  20
3.333333
  30
0.000000
  11
-68.533333
  21
3.333333
  31
0.000000
  0
LINE
  8
0
  10
-68.533333
  20
3.333333
  30
0.000000
  11
-68.533333
  21
1.333333
  31
0.000000
  0
LINE
  8
0
  10
-68.533333
  20
1.333333
  30
0.000000
  11
-66.533333
  21
1.333333
  31
0.000000
  0
LINE
  8
0
  10
-66.533333
  20
1.333333
  30
0.000000
  11
-66.533333
  21
3.333333
  31
0.000000
  0
LINE
  8
0
  10
-66.533333
  20
-16.666667
  30
0.000000
  11
-68.533333
  21
-16.666667
  31
0.000000
  0
LINE
  8
0
  10
-68.533333
  20
-16.666667
  30
0.000000
  11
-68.533333
  21
-18.666667
  31
0.000000
  0
LINE
  8
0
  10
-68.533333
  20
-18.666667
  30
0.000000
  11
-66.533333
  21
-18.666667
  31
0.000000
  0
LINE
  8
0
  10
-66.533333
  20
-18.666667
  30
0.000000
  11
-66.533333
  21
-16.666667
  31
0.000000
  0
LINE
  8
0
  10
83.466667
  20
-16.666667
  30
0.000000
  11
81.466667
  21
-16.666667
  31
0.000000
  0
LINE
  8
0
  10
81.466667
  20
-16.666667
  30
0.000000
  11
81.466667
  21
-18.666667
  31
0.000000
  0
LINE
  8
0
  10
81.466667
  20
-18.666667
  30
0.000000
  11
83.466667
  21
-18.666667
  31
0.000000
  0
LINE
  8
0
  10
83.466667
  20
-18.666667
  30
0.000000
  11
83.466667
  21
-16.666667
  31
0.000000
  0
LINE
  8
0
  10
83.466667
  20
3.333333
  30
0.000000
  11
81.466667
  21
3.333333
  31
0.000000
  0
LINE
  8
0
  10
81.466667
  20
3.333333
  30
0.000000
  11
81.466667
  21
1.333333
  31
0.000000
  0
LINE
  8
0
  10
81.466667
  20
1.333333
  30
0.000000
  11
83.466667
  21
1.333333
  31
0.000000
  0
LINE
  8
0
  10
83.466667
  20
1.333333
  30
0.000000
  11
83.466667
  21
3.333333
  31
0.000000
  0
LINE
  8
0
  10
-28.652191
  20
15.321490
  30
0.000000
  11
-34.075372
  21
0.624527
  31
0.000000
  0
LINE
  8
0
  10
-31.101808
  20
17.382096
  30
0.000000
  11
-31.101808
  21
17.469218
  31
0.000000
  0
LINE
  8
0
  10
-31.101808
  20
17.469218
  30
0.000000
  11
-31.014687
  21
17.643460
  31
0.000000
  0
LINE
  8
0
  10
-31.014687
  20
17.643460
  30
0.000000
  11
-30.927565
  21
17.730581
  31
0.000000
  0
LINE
  8
0
  10
-30.927565
  20
17.730581
  30
0.000000
  11
-30.753323
  21
17.817702
  31
0.000000
  0
LINE
  8
0
  10
-30.753323
  20
17.817702
  30
0.000000
  11
-30.404838
  21
17.817702
  31
0.000000
  0
LINE
  8
0
  10
-30.404838
  20
17.817702
  30
0.000000
  11
-30.230596
  21
17.730581
  31
0.000000
  0
LINE
  8
0
  10
-30.230596
  20
17.730581
  30
0.000000
  11
-30.143474
  21
17.643460
  31
0.000000
  0
LINE
  8
0
  10
-30.143474
  20
17.643460
  30
0.000000
  11
-30.056353
  21
17.469218
  31
0.000000
  0
LINE
  8
0
  10
-30.056353
  20
17.469218
  30
0.000000
  11
-30.056353
  21
17.294975
  31
0.000000
  0
LINE
  8
0
  10
-30.056353
  20
17.294975
  30
0.000000
  11
-30.143474
  21
17.120733
  31
0.000000
  0
LINE
  8
0
  10
-30.143474
  20
17.120733
  30
0.000000
  11
-30.317717
  21
16.859369
  31
0.000000
  0
LINE
  8
0
  10
-30.317717
  20
16.859369
  30
0.000000
  11
-31.188929
  21
15.988157
  31
0.000000
  0
LINE
  8
0
  10
-31.188929
  20
15.988157
  30
0.000000
  11
-29.969232
  21
15.988157
  31
0.000000
  0
LINE
  8
0
  10
-28.575293
  20
17.817702
  30
0.000000
  11
-29.446505
  21
16.598005
  31
0.000000
  0
LINE
  8
0
  10
-29.446505
  20
16.598005
  30
0.000000
  11
-28.139687
  21
16.598005
  31
0.000000
  0
LINE
  8
0
  10
-28.575293
  20
17.817702
  30
0.000000
  11
-28.575293
  21
15.988157
  31
0.000000
  0
LINE
  8
0
  10
-32.139462
  20
18.105426
  30
0.000000
  11
-33.336881
  21
15.537554
  31
0.000000
  0
LINE
  8
0
  10
-76.063636
  20
-6.795455
  30
0.000000
  11
-75.366667
  21
-8.625000
  31
0.000000
  0
LINE
  8
0
  10
-75.366667
  20
-8.625000
  30
0.000000
  11
-74.669697
  21
-6.795455
  31
0.000000
  0
LINE
  8
0
  10
89.603030
  20
-6.795455
  30
0.000000
  11
90.300000
  21
-8.625000
  31
0.000000
  0
LINE
  8
0
  10
90.300000
  20
-8.625000
  30
0.000000
  11
90.996970
  21
-6.795455
  31
0.000000
  0
LINE
  8
0
  10
81.856818
  20
11.037879
  30
0.000000
  11
81.856818
  21
9.208333
  31
0.000000
  0
LINE
  8
0
  10
83.076515
  20
11.037879
  30
0.000000
  11
83.076515
  21
9.208333
  31
0.000000
  0
LINE
  8
0
  10
81.856818
  20
10.166667
  30
0.000000
  11
83.076515
  21
10.166667
  31
0.000000
  0
LINE
  8
0
  10
6.856818
  20
-24.628788
  30
0.000000
  11
6.856818
  21
-26.458333
  31
0.000000
  0
LINE
  8
0
  10
8.076515
  20
-24.628788
  30
0.000000
  11
8.076515
  21
-26.458333
  31
0.000000
  0
LINE
  8
0
  10
6.856818
  20
-25.500000
  30
0.000000
  11
8.076515
  21
-25.500000
  31
0.000000
  0
LINE
  8
0
  10
-68.143182
  20
11.037879
  30
0.000000
  11
-68.143182
  21
9.208333
  31
0.000000
  0
LINE
  8
0
  10
-66.923485
  20
11.037879
  30
0.000000
  11
-66.923485
  21
9.208333
  31
0.000000
  0
LINE
  8
0
  10
-68.143182
  20
10.166667
  30
0.000000
  11
-66.923485
  21
10.166667
  31
0.000000
  0
LINE
  8
0
  10
-75.866667
  20
-14.333333
  30
0.000000
  11
-79.200000
  21
-14.333333
  31
0.000000
  0
LINE
  8
0
  10
90.800000
  20
-1.000000
  30
0.000000
  11
94.133333
  21
-1.000000
  31
0.000000
  0
LINE
  8
0
  10
79.133333
  20
10.666667
  30
0.000000
  11
79.133333
  21
14.000000
  31
0.000000
  0
LINE
  8
0
  10
-70.866667
  20
10.666667
  30
0.000000
  11
-70.866667
  21
14.000000
  31
0.000000
  0
LINE
  8
0
  10
-77.533333
  20
12.333333
  30
0.000000
  11
-104.083200
  21
12.333333
  31
0.000000
  0
LINE
  8
0
  10
-77.533333
  20
-27.666667
  30
0.000000
  11
-104.083200
  21
-27.666667
  31
0.000000
  0
LINE
  8
0
  10
-102.416533
  20
12.333333
  30
0.000000
  11
-102.416533
  21
-6.041667
  31
0.000000
  0
LINE
  8
0
  10
-102.416533
  20
-9.291667
  30
0.000000
  11
-102.416533
  21
-27.666667
  31
0.000000
  0
LINE
  8
0
  10
-102.416533
  20
-27.666667
  30
0.000000
  11
-101.746997
  21
-25.606044
  31
0.000000
  0
LINE
  8
0
  10
-102.416533
  20
12.333333
  30
0.000000
  11
-103.086070
  21
10.272711
  31
0.000000
  0
LINE
  8
0
  10
-102.416533
  20
12.333333
  30
0.000000
  11
-101.746997
  21
10.272711
  31
0.000000
  0
LINE
  8
0
  10
-102.416533
  20
-27.666667
  30
0.000000
  11
-103.086070
  21
-25.606044
  31
0.000000
  0
LINE
  8
0
  10
-105.204412
  20
-6.795455
  30
0.000000
  11
-106.075624
  21
-8.015152
  31
0.000000
  0
LINE
  8
0
  10
-106.075624
  20
-8.015152
  30
0.000000
  11
-104.768806
  21
-8.015152
  31
0.000000
  0
LINE
  8
0
  10
-105.204412
  20
-6.795455
  30
0.000000
  11
-105.204412
  21
-8.625000
  31
0.000000
  0
LINE
  8
0
  10
-77.533333
  20
-27.666667
  30
0.000000
  11
-77.533333
  21
-44.833333
  31
0.000000
  0
LINE
  8
0
  10
92.466667
  20
-27.666667
  30
0.000000
  11
92.466667
  21
-44.833333
  31
0.000000
  0
LINE
  8
0
  10
-77.533333
  20
-43.166667
  30
0.000000
  11
1.341667
  21
-43.166667
  31
0.000000
  0
LINE
  8
0
  10
11.591667
  20
-43.166667
  30
0.000000
  11
92.466667
  21
-43.166667
  31
0.000000
  0
LINE
  8
0
  10
92.466667
  20
-43.166667
  30
0.000000
  11
90.406044
  21
-42.497130
  31
0.000000
  0
LINE
  8
0
  10
-77.533333
  20
-43.166667
  30
0.000000
  11
-75.472711
  21
-43.836203
  31
0.000000
  0
LINE
  8
0
  10
-77.533333
  20
-43.166667
  30
0.000000
  11
-75.472711
  21
-42.497130
  31
0.000000
  0
LINE
  8
0
  10
92.466667
  20
-43.166667
  30
0.000000
  11
90.406044
  21
-43.836203
  31
0.000000
  0
LINE
  8
0
  10
2.197727
  20
-42.643939
  30
0.000000
  11
2.371970
  21
-42.556818
  31
0.000000
  0
LINE
  8
0
  10
2.371970
  20
-42.556818
  30
0.000000
  11
2.633333
  21
-42.295455
  31
0.000000
  0
LINE
  8
0
  10
2.633333
  20
-42.295455
  30
0.000000
  11
2.633333
  21
-44.125000
  31
0.000000
  0
LINE
  8
0
  10
4.898485
  20
-42.295455
  30
0.000000
  11
4.027273
  21
-44.125000
  31
0.000000
  0
LINE
  8
0
  10
3.678788
  20
-42.295455
  30
0.000000
  11
4.898485
  21
-42.295455
  31
0.000000
  0
LINE
  8
0
  10
-57.533333
  20
12.333333
  30
0.000000
  11
-57.533333
  21
26.720000
  31
0.000000
  0
LINE
  8
0
  10
-77.533333
  20
12.333333
  30
0.000000
  11
-77.533333
  21
26.720000
  31
0.000000
  0
LINE
  8
0
  10
-57.533333
  20
25.053333
  30
0.000000
  11
-63.039545
  21
25.053333
  31
0.000000
  0
LINE
  8
0
  10
-71.547121
  20
25.053333
  30
0.000000
  11
-77.533333
  21
25.053333
  31
0.000000
  0
LINE
  8
0
  10
-77.533333
  20
25.053333
  30
0.000000
  11
-75.472711
  21
24.383797
  31
0.000000
  0
LINE
  8
0
  10
-57.533333
  20
25.053333
  30
0.000000
  11
-59.593956
  21
25.722870
  31
0.000000
  0
LINE
  8
0
  10
-57.533333
  20
25.053333
  30
0.000000
  11
-59.593956
  21
24.383797
  31
0.000000
  0
LINE
  8
0
  10
-77.533333
  20
25.053333
  30
0.000000
  11
-75.472711
  21
25.722870
  31
0.000000
  0
LINE
  8
0
  10
-70.865303
  20
25.488939
  30
0.000000
  11
-70.865303
  21
25.576061
  31
0.000000
  0
LINE
  8
0
  10
-70.865303
  20
25.576061
  30
0.000000
  11
-70.778182
  21
25.750303
  31
0.000000
  0
LINE
  8
0
  10
-70.778182
  20
25.750303
  30
0.000000
  11
-70.691061
  21
25.837424
  31
0.000000
  0
LINE
  8
0
  10
-70.691061
  20
25.837424
  30
0.000000
  11
-70.516818
  21
25.924545
  31
0.000000
  0
LINE
  8
0
  10
-70.516818
  20
25.924545
  30
0.000000
  11
-70.168333
  21
25.924545
  31
0.000000
  0
LINE
  8
0
  10
-70.168333
  20
25.924545
  30
0.000000
  11
-69.994091
  21
25.837424
  31
0.000000
  0
LINE
  8
0
  10
-69.994091
  20
25.837424
  30
0.000000
  11
-69.906970
  21
25.750303
  31
0.000000
  0
LINE
  8
0
  10
-69.906970
  20
25.750303
  30
0.000000
  11
-69.819848
  21
25.576061
  31
0.000000
  0
LINE
  8
0
  10
-69.819848
  20
25.576061
  30
0.000000
  11
-69.819848
  21
25.401818
  31
0.000000
  0
LINE
  8
0
  10
-69.819848
  20
25.401818
  30
0.000000
  11
-69.906970
  21
25.227576
  31
0.000000
  0
LINE
  8
0
  10
-69.906970
  20
25.227576
  30
0.000000
  11
-70.081212
  21
24.966212
  31
0.000000
  0
LINE
  8
0
  10
-70.081212
  20
24.966212
  30
0.000000
  11
-70.952424
  21
24.095000
  31
0.000000
  0
LINE
  8
0
  10
-70.952424
  20
24.095000
  30
0.000000
  11
-69.732727
  21
24.095000
  31
0.000000
  0
LINE
  8
0
  10
-70.579514
  20
6.263889
  30
0.000000
  11
-69.217905
  21
4.506975
  31
0.000000
  0
LINE
  8
0
  10
-72.187374
  20
8.760101
  30
0.000000
  11
-73.058586
  21
8.760101
  31
0.000000
  0
LINE
  8
0
  10
-73.058586
  20
8.760101
  30
0.000000
  11
-73.145707
  21
7.976010
  31
0.000000
  0
LINE
  8
0
  10
-73.145707
  20
7.976010
  30
0.000000
  11
-73.058586
  21
8.063131
  31
0.000000
  0
LINE
  8
0
  10
-73.058586
  20
8.063131
  30
0.000000
  11
-72.797222
  21
8.150253
  31
0.000000
  0
LINE
  8
0
  10
-72.797222
  20
8.150253
  30
0.000000
  11
-72.535859
  21
8.150253
  31
0.000000
  0
LINE
  8
0
  10
-72.535859
  20
8.150253
  30
0.000000
  11
-72.274495
  21
8.063131
  31
0.000000
  0
LINE
  8
0
  10
-72.274495
  20
8.063131
  30
0.000000
  11
-72.100253
  21
7.888889
  31
0.000000
  0
LINE
  8
0
  10
-72.100253
  20
7.888889
  30
0.000000
  11
-72.013131
  21
7.627525
  31
0.000000
  0
LINE
  8
0
  10
-72.013131
  20
7.627525
  30
0.000000
  11
-72.013131
  21
7.453283
  31
0.000000
  0
LINE
  8
0
  10
-72.013131
  20
7.453283
  30
0.000000
  11
-72.100253
  21
7.191919
  31
0.000000
  0
LINE
  8
0
  10
-72.100253
  20
7.191919
  30
0.000000
  11
-72.274495
  21
7.017677
  31
0.000000
  0
LINE
  8
0
  10
-72.274495
  20
7.017677
  30
0.000000
  11
-72.535859
  21
6.930556
  31
0.000000
  0
LINE
  8
0
  10
-72.535859
  20
6.930556
  30
0.000000
  11
-72.797222
  21
6.930556
  31
0.000000
  0
LINE
  8
0
  10
-72.797222
  20
6.930556
  30
0.000000
  11
-73.058586
  21
7.017677
  31
0.000000
  0
LINE
  8
0
  10
-73.058586
  20
7.017677
  30
0.000000
  11
-73.145707
  21
7.104798
  31
0.000000
  0
LINE
  8
0
  10
-73.145707
  20
7.104798
  30
0.000000
  11
-73.232828
  21
7.279040
  31
0.000000
  0
LINE
  8
0
  10
-69.573737
  20
8.760101
  30
0.000000
  11
-70.444949
  21
8.760101
  31
0.000000
  0
LINE
  8
0
  10
-70.444949
  20
8.760101
  30
0.000000
  11
-70.532071
  21
7.976010
  31
0.000000
  0
LINE
  8
0
  10
-70.532071
  20
7.976010
  30
0.000000
  11
-70.444949
  21
8.063131
  31
0.000000
  0
LINE
  8
0
  10
-70.444949
  20
8.063131
  30
0.000000
  11
-70.183586
  21
8.150253
  31
0.000000
  0
LINE
  8
0
  10
-70.183586
  20
8.150253
  30
0.000000
  11
-69.922222
  21
8.150253
  31
0.000000
  0
LINE
  8
0
  10
-69.922222
  20
8.150253
  30
0.000000
  11
-69.660859
  21
8.063131
  31
0.000000
  0
LINE
  8
0
  10
-69.660859
  20
8.063131
  30
0.000000
  11
-69.486616
  21
7.888889
  31
0.000000
  0
LINE
  8
0
  10
-69.486616
  20
7.888889
  30
0.000000
  11
-69.399495
  21
7.627525
  31
0.000000
  0
LINE
  8
0
  10
-69.399495
  20
7.627525
  30
0.000000
  11
-69.399495
  21
7.453283
  31
0.000000
  0
LINE
  8
0
  10
-69.399495
  20
7.453283
  30
0.000000
  11
-69.486616
  21
7.191919
  31
0.000000
  0
LINE
  8
0
  10
-69.486616
  20
7.191919
  30
0.000000
  11
-69.660859
  21
7.017677
  31
0.000000
  0
LINE
  8
0
  10
-69.660859
  20
7.017677
  30
0.000000
  11
-69.922222
  21
6.930556
  31
0.000000
  0
LINE
  8
0
  10
-69.922222
  20
6.930556
  30
0.000000
  11
-70.183586
  21
6.930556
  31
0.000000
  0
LINE
  8
0
  10
-70.183586
  20
6.930556
  30
0.000000
  11
-70.444949
  21
7.017677
  31
0.000000
  0
LINE
  8
0
  10
-70.444949
  20
7.017677
  30
0.000000
  11
-70.532071
  21
7.104798
  31
0.000000
  0
LINE
  8
0
  10
-70.532071
  20
7.104798
  30
0.000000
  11
-70.619192
  21
7.279040
  31
0.000000
  0
LINE
  8
0
  10
-74.183362
  20
9.047825
  30
0.000000
  11
-75.380780
  21
6.479953
  31
0.000000
  0
LINE
  8
0
  10
-67.533333
  20
-13.250000
  30
0.000000
  11
-67.533333
  21
-16.583333
  31
0.000000
  0
LINE
  8
0
  10
82.466667
  20
6.750000
  30
0.000000
  11
82.466667
  21
3.416667
  31
0.000000
  0
LINE
  8
0
  10
82.466667
  20
-13.250000
  30
0.000000
  11
82.466667
  21
-16.583333
  31
0.000000
  0
LINE
  8
0
  10
-67.533333
  20
6.750000
  30
0.000000
  11
-67.533333
  21
3.416667
  31
0.000000
  0
LINE
  8
0
  10
-66.063636
  20
-6.795455
  30
0.000000
  11
-65.366667
  21
-8.625000
  31
0.000000
  0
LINE
  8
0
  10
-65.366667
  20
-8.625000
  30
0.000000
  11
-64.669697
  21
-6.795455
  31
0.000000
  0
LINE
  8
0
  10
-76.069949
  20
-31.310606
  30
0.000000
  11
-75.895707
  21
-31.223485
  31
0.000000
  0
LINE
  8
0
  10
-75.895707
  20
-31.223485
  30
0.000000
  11
-75.634343
  21
-30.962121
  31
0.000000
  0
LINE
  8
0
  10
-75.634343
  20
-30.962121
  30
0.000000
  11
-75.634343
  21
-32.791667
  31
0.000000
  0
LINE
  8
0
  10
-67.533333
  20
-27.666667
  30
0.000000
  11
-67.533333
  21
-33.500000
  31
0.000000
  0
LINE
  8
0
  10
-67.533333
  20
-31.833333
  30
0.000000
  11
-68.418434
  21
-31.833333
  31
0.000000
  0
LINE
  8
0
  10
-76.926010
  20
-31.833333
  30
0.000000
  11
-77.533333
  21
-31.833333
  31
0.000000
  0
LINE
  8
0
  10
-77.533333
  20
-31.833333
  30
0.000000
  11
-75.472711
  21
-31.163797
  31
0.000000
  0
LINE
  8
0
  10
-67.533333
  20
-31.833333
  30
0.000000
  11
-69.593956
  21
-32.502870
  31
0.000000
  0
LINE
  8
0
  10
-67.533333
  20
-31.833333
  30
0.000000
  11
-69.593956
  21
-31.163797
  31
0.000000
  0
LINE
  8
0
  10
-77.533333
  20
-31.833333
  30
0.000000
  11
-75.472711
  21
-32.502870
  31
0.000000
  0
LINE
  8
0
  10
-86.625505
  20
-22.113273
  30
0.000000
  11
-86.451263
  21
-22.026152
  31
0.000000
  0
LINE
  8
0
  10
-86.451263
  20
-22.026152
  30
0.000000
  11
-86.189899
  21
-21.764788
  31
0.000000
  0
LINE
  8
0
  10
-86.189899
  20
-21.764788
  30
0.000000
  11
-86.189899
  21
-23.594333
  31
0.000000
  0
LINE
  8
0
  10
-67.533333
  20
-17.666667
  30
0.000000
  11
-84.894444
  21
-17.666667
  31
0.000000
  0
LINE
  8
0
  10
-83.227778
  20
-17.666667
  30
0.000000
  11
-83.227778
  21
-21.011000
  31
0.000000
  0
LINE
  8
0
  10
-83.227778
  20
-24.261000
  30
0.000000
  11
-83.227778
  21
-27.666667
  31
0.000000
  0
LINE
  8
0
  10
-83.227778
  20
-27.666667
  30
0.000000
  11
-82.558241
  21
-25.606044
  31
0.000000
  0
LINE
  8
0
  10
-83.227778
  20
-17.666667
  30
0.000000
  11
-83.897315
  21
-19.727289
  31
0.000000
  0
LINE
  8
0
  10
-83.227778
  20
-17.666667
  30
0.000000
  11
-82.558241
  21
-19.727289
  31
0.000000
  0
LINE
  8
0
  10
-83.227778
  20
-27.666667
  30
0.000000
  11
-83.897315
  21
-25.606044
  31
0.000000
  0
LINE
  8
0
  10
-95.842626
  20
-13.852343
  30
0.000000
  11
-94.884293
  21
-13.852343
  31
0.000000
  0
LINE
  8
0
  10
-94.884293
  20
-13.852343
  30
0.000000
  11
-95.407020
  21
-14.549313
  31
0.000000
  0
LINE
  8
0
  10
-95.407020
  20
-14.549313
  30
0.000000
  11
-95.145657
  21
-14.549313
  31
0.000000
  0
LINE
  8
0
  10
-95.145657
  20
-14.549313
  30
0.000000
  11
-94.971414
  21
-14.636434
  31
0.000000
  0
LINE
  8
0
  10
-94.971414
  20
-14.636434
  30
0.000000
  11
-94.884293
  21
-14.723556
  31
0.000000
  0
LINE
  8
0
  10
-94.884293
  20
-14.723556
  30
0.000000
  11
-94.797172
  21
-14.984919
  31
0.000000
  0
LINE
  8
0
  10
-94.797172
  20
-14.984919
  30
0.000000
  11
-94.797172
  21
-15.159162
  31
0.000000
  0
LINE
  8
0
  10
-94.797172
  20
-15.159162
  30
0.000000
  11
-94.884293
  21
-15.420525
  31
0.000000
  0
LINE
  8
0
  10
-94.884293
  20
-15.420525
  30
0.000000
  11
-95.058535
  21
-15.594768
  31
0.000000
  0
LINE
  8
0
  10
-95.058535
  20
-15.594768
  30
0.000000
  11
-95.319899
  21
-15.681889
  31
0.000000
  0
LINE
  8
0
  10
-95.319899
  20
-15.681889
  30
0.000000
  11
-95.581263
  21
-15.681889
  31
0.000000
  0
LINE
  8
0
  10
-95.581263
  20
-15.681889
  30
0.000000
  11
-95.842626
  21
-15.594768
  31
0.000000
  0
LINE
  8
0
  10
-95.842626
  20
-15.594768
  30
0.000000
  11
-95.929747
  21
-15.507646
  31
0.000000
  0
LINE
  8
0
  10
-95.929747
  20
-15.507646
  30
0.000000
  11
-96.016869
  21
-15.333404
  31
0.000000
  0
LINE
  8
0
  10
-67.533333
  20
2.333333
  30
0.000000
  11
-94.024444
  21
2.333333
  31
0.000000
  0
LINE
  8
0
  10
-92.357778
  20
2.333333
  30
0.000000
  11
-92.357778
  21
-13.098556
  31
0.000000
  0
LINE
  8
0
  10
-92.357778
  20
-16.348556
  30
0.000000
  11
-92.357778
  21
-27.666667
  31
0.000000
  0
LINE
  8
0
  10
-92.357778
  20
-27.666667
  30
0.000000
  11
-91.688241
  21
-25.606044
  31
0.000000
  0
LINE
  8
0
  10
-92.357778
  20
2.333333
  30
0.000000
  11
-93.027315
  21
0.272711
  31
0.000000
  0
LINE
  8
0
  10
-92.357778
  20
2.333333
  30
0.000000
  11
-91.688241
  21
0.272711
  31
0.000000
  0
LINE
  8
0
  10
-92.357778
  20
-27.666667
  30
0.000000
  11
-93.027315
  21
-25.606044
  31
0.000000
  0
LINE
  8
0
  10
83.936364
  20
-6.795455
  30
0.000000
  11
84.633333
  21
-8.625000
  31
0.000000
  0
LINE
  8
0
  10
84.633333
  20
-8.625000
  30
0.000000
  11
85.330303
  21
-6.795455
  31
0.000000
  0
LINE
  8
0
  10
83.588939
  20
-31.703939
  30
0.000000
  11
83.763182
  21
-31.616818
  31
0.000000
  0
LINE
  8
0
  10
83.763182
  20
-31.616818
  30
0.000000
  11
84.024545
  21
-31.355455
  31
0.000000
  0
LINE
  8
0
  10
84.024545
  20
-31.355455
  30
0.000000
  11
84.024545
  21
-33.185000
  31
0.000000
  0
LINE
  8
0
  10
82.466667
  20
-27.666667
  30
0.000000
  11
82.466667
  21
-33.893333
  31
0.000000
  0
LINE
  8
0
  10
82.466667
  20
-32.226667
  30
0.000000
  11
82.732879
  21
-32.226667
  31
0.000000
  0
LINE
  8
0
  10
91.240455
  20
-32.226667
  30
0.000000
  11
92.466667
  21
-32.226667
  31
0.000000
  0
LINE
  8
0
  10
92.466667
  20
-32.226667
  30
0.000000
  11
90.406044
  21
-31.557130
  31
0.000000
  0
LINE
  8
0
  10
82.466667
  20
-32.226667
  30
0.000000
  11
84.527289
  21
-32.896203
  31
0.000000
  0
LINE
  8
0
  10
82.466667
  20
-32.226667
  30
0.000000
  11
84.527289
  21
-31.557130
  31
0.000000
  0
LINE
  8
0
  10
92.466667
  20
-32.226667
  30
0.000000
  11
90.406044
  21
-32.896203
  31
0.000000
  0
LINE
  8
0
  10
95.148939
  20
-21.903939
  30
0.000000
  11
95.323182
  21
-21.816818
  31
0.000000
  0
LINE
  8
0
  10
95.323182
  20
-21.816818
  30
0.000000
  11
95.584545
  21
-21.555455
  31
0.000000
  0
LINE
  8
0
  10
95.584545
  20
-21.555455
  30
0.000000
  11
95.584545
  21
-23.385000
  31
0.000000
  0
LINE
  8
0
  10
82.466667
  20
-17.666667
  30
0.000000
  11
100.213333
  21
-17.666667
  31
0.000000
  0
LINE
  8
0
  10
98.546667
  20
-17.666667
  30
0.000000
  11
98.546667
  21
-20.801667
  31
0.000000
  0
LINE
  8
0
  10
98.546667
  20
-24.051667
  30
0.000000
  11
98.546667
  21
-27.666667
  31
0.000000
  0
LINE
  8
0
  10
98.546667
  20
-27.666667
  30
0.000000
  11
97.877130
  21
-25.606044
  31
0.000000
  0
LINE
  8
0
  10
98.546667
  20
-17.666667
  30
0.000000
  11
99.216203
  21
-19.727289
  31
0.000000
  0
LINE
  8
0
  10
98.546667
  20
-17.666667
  30
0.000000
  11
97.877130
  21
-19.727289
  31
0.000000
  0
LINE
  8
0
  10
98.546667
  20
-27.666667
  30
0.000000
  11
99.216203
  21
-25.606044
  31
0.000000
  0
LINE
  8
0
  10
104.661818
  20
-9.875455
  30
0.000000
  11
105.620152
  21
-9.875455
  31
0.000000
  0
LINE
  8
0
  10
105.620152
  20
-9.875455
  30
0.000000
  11
105.097424
  21
-10.572424
  31
0.000000
  0
LINE
  8
0
  10
105.097424
  20
-10.572424
  30
0.000000
  11
105.358788
  21
-10.572424
  31
0.000000
  0
LINE
  8
0
  10
105.358788
  20
-10.572424
  30
0.000000
  11
105.533030
  21
-10.659545
  31
0.000000
  0
LINE
  8
0
  10
105.533030
  20
-10.659545
  30
0.000000
  11
105.620152
  21
-10.746667
  31
0.000000
  0
LINE
  8
0
  10
105.620152
  20
-10.746667
  30
0.000000
  11
105.707273
  21
-11.008030
  31
0.000000
  0
LINE
  8
0
  10
105.707273
  20
-11.008030
  30
0.000000
  11
105.707273
  21
-11.182273
  31
0.000000
  0
LINE
  8
0
  10
105.707273
  20
-11.182273
  30
0.000000
  11
105.620152
  21
-11.443636
  31
0.000000
  0
LINE
  8
0
  10
105.620152
  20
-11.443636
  30
0.000000
  11
105.445909
  21
-11.617879
  31
0.000000
  0
LINE
  8
0
  10
105.445909
  20
-11.617879
  30
0.000000
  11
105.184545
  21
-11.705000
  31
0.000000
  0
LINE
  8
0
  10
105.184545
  20
-11.705000
  30
0.000000
  11
104.923182
  21
-11.705000
  31
0.000000
  0
LINE
  8
0
  10
104.923182
  20
-11.705000
  30
0.000000
  11
104.661818
  21
-11.617879
  31
0.000000
  0
LINE
  8
0
  10
104.661818
  20
-11.617879
  30
0.000000
  11
104.574697
  21
-11.530758
  31
0.000000
  0
LINE
  8
0
  10
104.574697
  20
-11.530758
  30
0.000000
  11
104.487576
  21
-11.356515
  31
0.000000
  0
LINE
  8
0
  10
82.466667
  20
2.333333
  30
0.000000
  11
109.813333
  21
2.333333
  31
0.000000
  0
LINE
  8
0
  10
108.146667
  20
2.333333
  30
0.000000
  11
108.146667
  21
-9.121667
  31
0.000000
  0
LINE
  8
0
  10
108.146667
  20
-12.371667
  30
0.000000
  11
108.146667
  21
-27.666667
  31
0.000000
  0
LINE
  8
0
  10
108.146667
  20
-27.666667
  30
0.000000
  11
107.477130
  21
-25.606044
  31
0.000000
  0
LINE
  8
0
  10
108.146667
  20
2.333333
  30
0.000000
  11
108.816203
  21
0.272711
  31
0.000000
  0
LINE
  8
0
  10
108.146667
  20
2.333333
  30
0.000000
  11
107.477130
  21
0.272711
  31
0.000000
  0
LINE
  8
0
  10
108.146667
  20
-27.666667
  30
0.000000
  11
108.816203
  21
-25.606044
  31
0.000000
  0
LINE
  8
0
  10
-56.063636
  20
-8.087106
  30
0.000000
  11
-55.366667
  21
-9.916651
  31
0.000000
  0
LINE
  8
0
  10
-55.366667
  20
-9.916651
  30
0.000000
  11
-54.669697
  21
-8.087106
  31
0.000000
  0
LINE
  8
0
  10
-71.305303
  20
-36.231061
  30
0.000000
  11
-71.305303
  21
-36.143939
  31
0.000000
  0
LINE
  8
0
  10
-71.305303
  20
-36.143939
  30
0.000000
  11
-71.218182
  21
-35.969697
  31
0.000000
  0
LINE
  8
0
  10
-71.218182
  20
-35.969697
  30
0.000000
  11
-71.131061
  21
-35.882576
  31
0.000000
  0
LINE
  8
0
  10
-71.131061
  20
-35.882576
  30
0.000000
  11
-70.956818
  21
-35.795455
  31
0.000000
  0
LINE
  8
0
  10
-70.956818
  20
-35.795455
  30
0.000000
  11
-70.608333
  21
-35.795455
  31
0.000000
  0
LINE
  8
0
  10
-70.608333
  20
-35.795455
  30
0.000000
  11
-70.434091
  21
-35.882576
  31
0.000000
  0
LINE
  8
0
  10
-70.434091
  20
-35.882576
  30
0.000000
  11
-70.346970
  21
-35.969697
  31
0.000000
  0
LINE
  8
0
  10
-70.346970
  20
-35.969697
  30
0.000000
  11
-70.259848
  21
-36.143939
  31
0.000000
  0
LINE
  8
0
  10
-70.259848
  20
-36.143939
  30
0.000000
  11
-70.259848
  21
-36.318182
  31
0.000000
  0
LINE
  8
0
  10
-70.259848
  20
-36.318182
  30
0.000000
  11
-70.346970
  21
-36.492424
  31
0.000000
  0
LINE
  8
0
  10
-70.346970
  20
-36.492424
  30
0.000000
  11
-70.521212
  21
-36.753788
  31
0.000000
  0
LINE
  8
0
  10
-70.521212
  20
-36.753788
  30
0.000000
  11
-71.392424
  21
-37.625000
  31
0.000000
  0
LINE
  8
0
  10
-71.392424
  20
-37.625000
  30
0.000000
  11
-70.172727
  21
-37.625000
  31
0.000000
  0
LINE
  8
0
  10
-57.533333
  20
-17.666667
  30
0.000000
  11
-57.533333
  21
-38.333333
  31
0.000000
  0
LINE
  8
0
  10
-57.533333
  20
-36.666667
  30
0.000000
  11
-63.479545
  21
-36.666667
  31
0.000000
  0
LINE
  8
0
  10
-71.987121
  20
-36.666667
  30
0.000000
  11
-77.533333
  21
-36.666667
  31
0.000000
  0
LINE
  8
0
  10
-77.533333
  20
-36.666667
  30
0.000000
  11
-75.472711
  21
-35.997130
  31
0.000000
  0
LINE
  8
0
  10
-57.533333
  20
-36.666667
  30
0.000000
  11
-59.593956
  21
-37.336203
  31
0.000000
  0
LINE
  8
0
  10
-57.533333
  20
-36.666667
  30
0.000000
  11
-59.593956
  21
-35.997130
  31
0.000000
  0
LINE
  8
0
  10
-77.533333
  20
-36.666667
  30
0.000000
  11
-75.472711
  21
-37.336203
  31
0.000000
  0
LINE
  8
0
  10
-52.131061
  20
-22.343939
  30
0.000000
  11
-51.956818
  21
-22.256818
  31
0.000000
  0
LINE
  8
0
  10
-51.956818
  20
-22.256818
  30
0.000000
  11
-51.695455
  21
-21.995455
  31
0.000000
  0
LINE
  8
0
  10
-51.695455
  20
-21.995455
  30
0.000000
  11
-51.695455
  21
-23.825000
  31
0.000000
  0
LINE
  8
0
  10
-57.533333
  20
-17.666667
  30
0.000000
  11
-47.066667
  21
-17.666667
  31
0.000000
  0
LINE
  8
0
  10
-48.733333
  20
-17.666667
  30
0.000000
  11
-48.733333
  21
-21.241667
  31
0.000000
  0
LINE
  8
0
  10
-48.733333
  20
-24.491667
  30
0.000000
  11
-48.733333
  21
-27.666667
  31
0.000000
  0
LINE
  8
0
  10
-48.733333
  20
-27.666667
  30
0.000000
  11
-49.402870
  21
-25.606044
  31
0.000000
  0
LINE
  8
0
  10
-48.733333
  20
-17.666667
  30
0.000000
  11
-48.063797
  21
-19.727289
  31
0.000000
  0
LINE
  8
0
  10
-48.733333
  20
-17.666667
  30
0.000000
  11
-49.402870
  21
-19.727289
  31
0.000000
  0
LINE
  8
0
  10
-48.733333
  20
-27.666667
  30
0.000000
  11
-48.063797
  21
-25.606044
  31
0.000000
  0
LINE
  8
0
  10
8.936364
  20
43.640148
  30
0.000000
  11
9.633333
  21
41.810603
  31
0.000000
  0
LINE
  8
0
  10
9.633333
  20
41.810603
  30
0.000000
  11
10.330303
  21
43.640148
  31
0.000000
  0
LINE
  8
0
  10
-59.866667
  20
-1.947528
  30
0.000000
  11
-59.866667
  21
-3.777073
  31
0.000000
  0
LINE
  8
0
  10
-60.476515
  20
-1.947528
  30
0.000000
  11
-59.256818
  21
-1.947528
  31
0.000000
  0
LINE
  8
0
  10
-54.182256
  20
1.409250
  30
0.000000
  11
-54.182256
  21
-0.420296
  31
0.000000
  0
LINE
  8
0
  10
-54.792105
  20
1.409250
  30
0.000000
  11
-53.572408
  21
1.409250
  31
0.000000
  0
LINE
  8
0
  10
-56.033333
  20
-19.128788
  30
0.000000
  11
-56.033333
  21
-20.958333
  31
0.000000
  0
LINE
  8
0
  10
-56.643182
  20
-19.128788
  30
0.000000
  11
-55.423485
  21
-19.128788
  31
0.000000
  0
LINE
  8
0
  10
-59.866667
  20
-15.295455
  30
0.000000
  11
-59.866667
  21
-17.125000
  31
0.000000
  0
LINE
  8
0
  10
-60.476515
  20
-15.295455
  30
0.000000
  11
-59.256818
  21
-15.295455
  31
0.000000
  0
LINE
  8
0
  10
-58.272505
  20
-18.405838
  30
0.000000
  11
-55.915482
  21
-16.048816
  31
0.000000
  0
LINE
  8
0
  10
-25.643182
  20
-18.962121
  30
0.000000
  11
-25.643182
  21
-20.791667
  31
0.000000
  0
LINE
  8
0
  10
-24.423485
  20
-18.962121
  30
0.000000
  11
-24.423485
  21
-20.791667
  31
0.000000
  0
LINE
  8
0
  10
-25.643182
  20
-19.833333
  30
0.000000
  11
-24.423485
  21
-19.833333
  31
0.000000
  0
LINE
  8
0
  10
-19.647675
  20
-11.549574
  30
0.000000
  11
-19.647675
  21
-13.379119
  31
0.000000
  0
LINE
  8
0
  10
-20.257524
  20
-11.549574
  30
0.000000
  11
-19.037827
  21
-11.549574
  31
0.000000
  0
LINE
  8
0
  10
-20.461813
  20
-19.128788
  30
0.000000
  11
-20.461813
  21
-20.958333
  31
0.000000
  0
LINE
  8
0
  10
-21.071662
  20
-19.128788
  30
0.000000
  11
-19.851965
  21
-19.128788
  31
0.000000
  0
LINE
  8
0
  10
34.581009
  20
-11.549574
  30
0.000000
  11
34.581009
  21
-13.379119
  31
0.000000
  0
LINE
  8
0
  10
33.971160
  20
-11.549574
  30
0.000000
  11
35.190857
  21
-11.549574
  31
0.000000
  0
LINE
  8
0
  10
35.395147
  20
-19.128788
  30
0.000000
  11
35.395147
  21
-20.958333
  31
0.000000
  0
LINE
  8
0
  10
34.785298
  20
-19.128788
  30
0.000000
  11
36.004995
  21
-19.128788
  31
0.000000
  0
LINE
  8
0
  10
39.387571
  20
-20.041667
  30
0.000000
  11
36.471518
  21
-17.211380
  31
0.000000
  0
LINE
  8
0
  10
39.842116
  20
-20.795455
  30
0.000000
  11
40.800450
  21
-20.795455
  31
0.000000
  0
LINE
  8
0
  10
40.800450
  20
-20.795455
  30
0.000000
  11
40.277723
  21
-21.492424
  31
0.000000
  0
LINE
  8
0
  10
40.277723
  20
-21.492424
  30
0.000000
  11
40.539086
  21
-21.492424
  31
0.000000
  0
LINE
  8
0
  10
40.539086
  20
-21.492424
  30
0.000000
  11
40.713329
  21
-21.579545
  31
0.000000
  0
LINE
  8
0
  10
40.713329
  20
-21.579545
  30
0.000000
  11
40.800450
  21
-21.666667
  31
0.000000
  0
LINE
  8
0
  10
40.800450
  20
-21.666667
  30
0.000000
  11
40.887571
  21
-21.928030
  31
0.000000
  0
LINE
  8
0
  10
40.887571
  20
-21.928030
  30
0.000000
  11
40.887571
  21
-22.102273
  31
0.000000
  0
LINE
  8
0
  10
40.887571
  20
-22.102273
  30
0.000000
  11
40.800450
  21
-22.363636
  31
0.000000
  0
LINE
  8
0
  10
40.800450
  20
-22.363636
  30
0.000000
  11
40.626207
  21
-22.537879
  31
0.000000
  0
LINE
  8
0
  10
40.626207
  20
-22.537879
  30
0.000000
  11
40.364844
  21
-22.625000
  31
0.000000
  0
LINE
  8
0
  10
40.364844
  20
-22.625000
  30
0.000000
  11
40.103480
  21
-22.625000
  31
0.000000
  0
LINE
  8
0
  10
40.103480
  20
-22.625000
  30
0.000000
  11
39.842116
  21
-22.537879
  31
0.000000
  0
LINE
  8
0
  10
39.842116
  20
-22.537879
  30
0.000000
  11
39.754995
  21
-22.450758
  31
0.000000
  0
LINE
  8
0
  10
39.754995
  20
-22.450758
  30
0.000000
  11
39.667874
  21
-22.276515
  31
0.000000
  0
LINE
  8
0
  10
38.717341
  20
-20.507731
  30
0.000000
  11
37.519922
  21
-23.075603
  31
0.000000
  0
LINE
  8
0
  10
69.603030
  20
-8.087106
  30
0.000000
  11
70.300000
  21
-9.916651
  31
0.000000
  0
LINE
  8
0
  10
70.300000
  20
-9.916651
  30
0.000000
  11
70.996970
  21
-8.087106
  31
0.000000
  0
LINE
  8
0
  10
53.321058
  20
-14.628788
  30
0.000000
  11
53.321058
  21
-16.458333
  31
0.000000
  0
LINE
  8
0
  10
54.540755
  20
-14.628788
  30
0.000000
  11
54.540755
  21
-16.458333
  31
0.000000
  0
LINE
  8
0
  10
53.321058
  20
-15.500000
  30
0.000000
  11
54.540755
  21
-15.500000
  31
0.000000
  0
LINE
  8
0
  10
74.800000
  20
-15.295455
  30
0.000000
  11
74.800000
  21
-17.125000
  31
0.000000
  0
LINE
  8
0
  10
74.190152
  20
-15.295455
  30
0.000000
  11
75.409848
  21
-15.295455
  31
0.000000
  0
LINE
  8
0
  10
70.966667
  20
-19.128788
  30
0.000000
  11
70.966667
  21
-20.958333
  31
0.000000
  0
LINE
  8
0
  10
70.356818
  20
-19.128788
  30
0.000000
  11
71.576515
  21
-19.128788
  31
0.000000
  0
LINE
  8
0
  10
69.115589
  20
1.409250
  30
0.000000
  11
69.115589
  21
-0.420296
  31
0.000000
  0
LINE
  8
0
  10
68.505741
  20
1.409250
  30
0.000000
  11
69.725438
  21
1.409250
  31
0.000000
  0
LINE
  8
0
  10
74.800000
  20
-1.947528
  30
0.000000
  11
74.800000
  21
-3.777073
  31
0.000000
  0
LINE
  8
0
  10
74.190152
  20
-1.947528
  30
0.000000
  11
75.409848
  21
-1.947528
  31
0.000000
  0
LINE
  8
0
  10
72.576863
  20
-0.092012
  30
0.000000
  11
70.881919
  21
-2.962252
  31
0.000000
  0
LINE
  8
0
  10
73.205838
  20
-18.405838
  30
0.000000
  11
70.848816
  21
-16.048816
  31
0.000000
  0
LINE
  8
0
  10
32.246593
  20
-16.504876
  30
0.000000
  11
35.560860
  21
-16.148866
  31
0.000000
  0
LINE
  8
0
  10
69.068939
  20
-22.143939
  30
0.000000
  11
69.243182
  21
-22.056818
  31
0.000000
  0
LINE
  8
0
  10
69.243182
  20
-22.056818
  30
0.000000
  11
69.504545
  21
-21.795455
  31
0.000000
  0
LINE
  8
0
  10
69.504545
  20
-21.795455
  30
0.000000
  11
69.504545
  21
-23.625000
  31
0.000000
  0
LINE
  8
0
  10
72.466667
  20
-17.666667
  30
0.000000
  11
72.466667
  21
-21.041667
  31
0.000000
  0
LINE
  8
0
  10
72.466667
  20
-24.291667
  30
0.000000
  11
72.466667
  21
-27.666667
  31
0.000000
  0
LINE
  8
0
  10
72.466667
  20
-27.666667
  30
0.000000
  11
72.466667
  21
-25.606044
  31
0.000000
  0
LINE
  8
0
  10
72.466667
  20
-25.606044
  30
0.000000
  11
72.466667
  21
-27.666667
  31
0.000000
  0
LINE
  8
0
  10
72.466667
  20
-27.666667
  30
0.000000
  11
72.466667
  21
-27.666667
  31
0.000000
  0
LINE
  8
0
  10
79.422475
  20
-36.758838
  30
0.000000
  11
79.422475
  21
-36.671717
  31
0.000000
  0
LINE
  8
0
  10
79.422475
  20
-36.671717
  30
0.000000
  11
79.509596
  21
-36.497475
  31
0.000000
  0
LINE
  8
0
  10
79.509596
  20
-36.497475
  30
0.000000
  11
79.596717
  21
-36.410354
  31
0.000000
  0
LINE
  8
0
  10
79.596717
  20
-36.410354
  30
0.000000
  11
79.770960
  21
-36.323232
  31
0.000000
  0
LINE
  8
0
  10
79.770960
  20
-36.323232
  30
0.000000
  11
80.119444
  21
-36.323232
  31
0.000000
  0
LINE
  8
0
  10
80.119444
  20
-36.323232
  30
0.000000
  11
80.293687
  21
-36.410354
  31
0.000000
  0
LINE
  8
0
  10
80.293687
  20
-36.410354
  30
0.000000
  11
80.380808
  21
-36.497475
  31
0.000000
  0
LINE
  8
0
  10
80.380808
  20
-36.497475
  30
0.000000
  11
80.467929
  21
-36.671717
  31
0.000000
  0
LINE
  8
0
  10
80.467929
  20
-36.671717
  30
0.000000
  11
80.467929
  21
-36.845960
  31
0.000000
  0
LINE
  8
0
  10
80.467929
  20
-36.845960
  30
0.000000
  11
80.380808
  21
-37.020202
  31
0.000000
  0
LINE
  8
0
  10
80.380808
  20
-37.020202
  30
0.000000
  11
80.206566
  21
-37.281566
  31
0.000000
  0
LINE
  8
0
  10
80.206566
  20
-37.281566
  30
0.000000
  11
79.335354
  21
-38.152778
  31
0.000000
  0
LINE
  8
0
  10
79.335354
  20
-38.152778
  30
0.000000
  11
80.555051
  21
-38.152778
  31
0.000000
  0
LINE
  8
0
  10
72.466667
  20
-17.666667
  30
0.000000
  11
72.466667
  21
-38.861111
  31
0.000000
  0
LINE
  8
0
  10
72.466667
  20
-37.194444
  30
0.000000
  11
78.740657
  21
-37.194444
  31
0.000000
  0
LINE
  8
0
  10
87.248232
  20
-37.194444
  30
0.000000
  11
92.466667
  21
-37.194444
  31
0.000000
  0
LINE
  8
0
  10
92.466667
  20
-37.194444
  30
0.000000
  11
90.406044
  21
-36.524908
  31
0.000000
  0
LINE
  8
0
  10
72.466667
  20
-37.194444
  30
0.000000
  11
74.527289
  21
-37.863981
  31
0.000000
  0
LINE
  8
0
  10
72.466667
  20
-37.194444
  30
0.000000
  11
74.527289
  21
-36.524908
  31
0.000000
  0
LINE
  8
0
  10
92.466667
  20
-37.194444
  30
0.000000
  11
90.406044
  21
-37.863981
  31
0.000000
  0
LINE
  8
0
  10
-6.988225
  20
-13.170867
  30
0.000000
  11
-7.407697
  21
-16.812914
  31
0.000000
  0
LINE
  8
0
  10
-9.850309
  20
-11.110261
  30
0.000000
  11
-9.850309
  21
-11.023139
  31
0.000000
  0
LINE
  8
0
  10
-9.850309
  20
-11.023139
  30
0.000000
  11
-9.763188
  21
-10.848897
  31
0.000000
  0
LINE
  8
0
  10
-9.763188
  20
-10.848897
  30
0.000000
  11
-9.676067
  21
-10.761776
  31
0.000000
  0
LINE
  8
0
  10
-9.676067
  20
-10.761776
  30
0.000000
  11
-9.501824
  21
-10.674655
  31
0.000000
  0
LINE
  8
0
  10
-9.501824
  20
-10.674655
  30
0.000000
  11
-9.153339
  21
-10.674655
  31
0.000000
  0
LINE
  8
0
  10
-9.153339
  20
-10.674655
  30
0.000000
  11
-8.979097
  21
-10.761776
  31
0.000000
  0
LINE
  8
0
  10
-8.979097
  20
-10.761776
  30
0.000000
  11
-8.891976
  21
-10.848897
  31
0.000000
  0
LINE
  8
0
  10
-8.891976
  20
-10.848897
  30
0.000000
  11
-8.804855
  21
-11.023139
  31
0.000000
  0
LINE
  8
0
  10
-8.804855
  20
-11.023139
  30
0.000000
  11
-8.804855
  21
-11.197382
  31
0.000000
  0
LINE
  8
0
  10
-8.804855
  20
-11.197382
  30
0.000000
  11
-8.891976
  21
-11.371624
  31
0.000000
  0
LINE
  8
0
  10
-8.891976
  20
-11.371624
  30
0.000000
  11
-9.066218
  21
-11.632988
  31
0.000000
  0
LINE
  8
0
  10
-9.066218
  20
-11.632988
  30
0.000000
  11
-9.937430
  21
-12.504200
  31
0.000000
  0
LINE
  8
0
  10
-9.937430
  20
-12.504200
  30
0.000000
  11
-8.717733
  21
-12.504200
  31
0.000000
  0
LINE
  8
0
  10
-7.062430
  20
-10.936018
  30
0.000000
  11
-7.149552
  21
-10.761776
  31
0.000000
  0
LINE
  8
0
  10
-7.149552
  20
-10.761776
  30
0.000000
  11
-7.410915
  21
-10.674655
  31
0.000000
  0
LINE
  8
0
  10
-7.410915
  20
-10.674655
  30
0.000000
  11
-7.585158
  21
-10.674655
  31
0.000000
  0
LINE
  8
0
  10
-7.585158
  20
-10.674655
  30
0.000000
  11
-7.846521
  21
-10.761776
  31
0.000000
  0
LINE
  8
0
  10
-7.846521
  20
-10.761776
  30
0.000000
  11
-8.020764
  21
-11.023139
  31
0.000000
  0
LINE
  8
0
  10
-8.020764
  20
-11.023139
  30
0.000000
  11
-8.107885
  21
-11.458745
  31
0.000000
  0
LINE
  8
0
  10
-8.107885
  20
-11.458745
  30
0.000000
  11
-8.107885
  21
-11.894352
  31
0.000000
  0
LINE
  8
0
  10
-8.107885
  20
-11.894352
  30
0.000000
  11
-8.020764
  21
-12.242836
  31
0.000000
  0
LINE
  8
0
  10
-8.020764
  20
-12.242836
  30
0.000000
  11
-7.846521
  21
-12.417079
  31
0.000000
  0
LINE
  8
0
  10
-7.846521
  20
-12.417079
  30
0.000000
  11
-7.585158
  21
-12.504200
  31
0.000000
  0
LINE
  8
0
  10
-7.585158
  20
-12.504200
  30
0.000000
  11
-7.498036
  21
-12.504200
  31
0.000000
  0
LINE
  8
0
  10
-7.498036
  20
-12.504200
  30
0.000000
  11
-7.236673
  21
-12.417079
  31
0.000000
  0
LINE
  8
0
  10
-7.236673
  20
-12.417079
  30
0.000000
  11
-7.062430
  21
-12.242836
  31
0.000000
  0
LINE
  8
0
  10
-7.062430
  20
-12.242836
  30
0.000000
  11
-6.975309
  21
-11.981473
  31
0.000000
  0
LINE
  8
0
  10
-6.975309
  20
-11.981473
  30
0.000000
  11
-6.975309
  21
-11.894352
  31
0.000000
  0
LINE
  8
0
  10
-6.975309
  20
-11.894352
  30
0.000000
  11
-7.062430
  21
-11.632988
  31
0.000000
  0
LINE
  8
0
  10
-7.062430
  20
-11.632988
  30
0.000000
  11
-7.236673
  21
-11.458745
  31
0.000000
  0
LINE
  8
0
  10
-7.236673
  20
-11.458745
  30
0.000000
  11
-7.498036
  21
-11.371624
  31
0.000000
  0
LINE
  8
0
  10
-7.498036
  20
-11.371624
  30
0.000000
  11
-7.585158
  21
-11.371624
  31
0.000000
  0
LINE
  8
0
  10
-7.585158
  20
-11.371624
  30
0.000000
  11
-7.846521
  21
-11.458745
  31
0.000000
  0
LINE
  8
0
  10
-7.846521
  20
-11.458745
  30
0.000000
  11
-8.020764
  21
-11.632988
  31
0.000000
  0
LINE
  8
0
  10
-8.020764
  20
-11.632988
  30
0.000000
  11
-8.107885
  21
-11.894352
  31
0.000000
  0
LINE
  8
0
  10
-10.887964
  20
-10.386931
  30
0.000000
  11
-12.085382
  21
-12.954803
  31
0.000000
  0
LINE
  8
0
  10
70.800000
  20
-6.055535
  30
0.000000
  11
74.133333
  21
-6.055535
  31
0.000000
  0
LINE
  8
0
  10
-55.866667
  20
-11.861101
  30
0.000000
  11
-59.200000
  21
-11.861101
  31
0.000000
  0
ARC
  8
0
  10
7.466667
  20
113.204538
  30
0.000000
  40
120.000000
  50
-122.797168
  51
-57.202832
  0
LINE
  8
0
  10
72.466667
  20
12.333333
  30
0.000000
  11
92.466667
  21
12.333333
  31
0.000000
  0
LINE
  8
0
  10
92.466667
  20
12.333333
  30
0.000000
  11
92.466667
  21
-27.666667
  31
0.000000
  0
LINE
  8
0
  10
92.466667
  20
-27.666667
  30
0.000000
  11
-77.533333
  21
-27.666667
  31
0.000000
  0
LINE
  8
0
  10
-77.533333
  20
-27.666667
  30
0.000000
  11
-77.533333
  21
12.333333
  31
0.000000
  0
LINE
  8
0
  10
-77.533333
  20
12.333333
  30
0.000000
  11
-57.533333
  21
12.333333
  31
0.000000
  0
ARC
  8
0
  10
-67.533333
  20
2.333333
  30
0.000000
  40
2.750000
  50
-90.000000
  51
0.000000
  0
ARC
  8
0
  10
-67.533333
  20
2.333333
  30
0.000000
  40
2.750000
  50
180.000000
  51
-90.000000
  0
ARC
  8
0
  10
-67.533333
  20
2.333333
  30
0.000000
  40
2.750000
  50
90.000000
  51
180.000000
  0
ARC
  8
0
  10
-67.533333
  20
2.333333
  30
0.000000
  40
2.750000
  50
0.000000
  51
90.000000
  0
ARC
  8
0
  10
-67.533333
  20
-17.666667
  30
0.000000
  40
2.750000
  50
-90.000000
  51
0.000000
  0
ARC
  8
0
  10
-67.533333
  20
-17.666667
  30
0.000000
  40
2.750000
  50
180.000000
  51
-90.000000
  0
ARC
  8
0
  10
-67.533333
  20
-17.666667
  30
0.000000
  40
2.750000
  50
90.000000
  51
180.000000
  0
ARC
  8
0
  10
-67.533333
  20
-17.666667
  30
0.000000
  40
2.750000
  50
0.000000
  51
90.000000
  0
ARC
  8
0
  10
82.466667
  20
-17.666667
  30
0.000000
  40
2.750000
  50
-90.000000
  51
0.000000
  0
ARC
  8
0
  10
82.466667
  20
-17.666667
  30
0.000000
  40
2.750000
  50
180.000000
  51
-90.000000
  0
ARC
  8
0
  10
82.466667
  20
-17.666667
  30
0.000000
  40
2.750000
  50
90.000000
  51
180.000000
  0
ARC
  8
0
  10
82.466667
  20
-17.666667
  30
0.000000
  40
2.750000
  50
0.000000
  51
90.000000
  0
ARC
  8
0
  10
82.466667
  20
2.333333
  30
0.000000
  40
2.750000
  50
-90.000000
  51
0.000000
  0
ARC
  8
0
  10
82.466667
  20
2.333333
  30
0.000000
  40
2.750000
  50
180.000000
  51
-90.000000
  0
ARC
  8
0
  10
82.466667
  20
2.333333
  30
0.000000
  40
2.750000
  50
90.000000
  51
180.000000
  0
ARC
  8
0
  10
82.466667
  20
2.333333
  30
0.000000
  40
2.750000
  50
0.000000
  51
90.000000
  0
ARC
  8
0
  10
7.466667
  20
112.333333
  30
0.000000
  40
130.000000
  50
-118.874306
  51
-102.262090
  0
ARC
  8
0
  10
-20.461813
  20
-16.166667
  30
0.000000
  40
1.500000
  50
-6.131045
  51
77.737910
  0
ARC
  8
0
  10
-20.461813
  20
-16.166667
  30
0.000000
  40
1.500000
  50
-90.000000
  51
-6.131045
  0
LINE
  8
0
  10
-20.461813
  20
-17.666667
  30
0.000000
  11
-56.033333
  21
-17.666667
  31
0.000000
  0
ARC
  8
0
  10
-56.033333
  20
-16.166667
  30
0.000000
  40
1.500000
  50
180.000000
  51
-90.000000
  0
LINE
  8
0
  10
-57.533333
  20
-16.166667
  30
0.000000
  11
-57.533333
  21
-2.818740
  31
0.000000
  0
ARC
  8
0
  10
-56.033333
  20
-2.818740
  30
0.000000
  40
1.500000
  50
120.562847
  51
180.000000
  0
ARC
  8
0
  10
-56.033333
  20
-2.818740
  30
0.000000
  40
1.500000
  50
61.125694
  51
120.562847
  0
ARC
  8
0
  10
7.466667
  20
112.333333
  30
0.000000
  40
130.000000
  50
-77.737910
  51
-61.125694
  0
ARC
  8
0
  10
70.966667
  20
-2.818740
  30
0.000000
  40
1.500000
  50
59.437153
  51
118.874306
  0
ARC
  8
0
  10
70.966667
  20
-2.818740
  30
0.000000
  40
1.500000
  50
0.000000
  51
59.437153
  0
LINE
  8
0
  10
72.466667
  20
-2.818740
  30
0.000000
  11
72.466667
  21
-16.166667
  31
0.000000
  0
ARC
  8
0
  10
70.966667
  20
-16.166667
  30
0.000000
  40
1.500000
  50
-90.000000
  51
0.000000
  0
LINE
  8
0
  10
70.966667
  20
-17.666667
  30
0.000000
  11
35.395147
  21
-17.666667
  31
0.000000
  0
ARC
  8
0
  10
35.395147
  20
-16.166667
  30
0.000000
  40
1.500000
  50
-173.868955
  51
-90.000000
  0
ARC
  8
0
  10
35.395147
  20
-16.166667
  30
0.000000
  40
1.500000
  50
102.262090
  51
-173.868955
  0
LINE
  8
0
  10
-71.316162
  20
7.104798
  30
0.000000
  11
-71.229040
  21
7.017677
  31
0.000000
  0
LINE
  8
0
  10
-71.229040
  20
7.017677
  30
0.000000
  11
-71.316162
  21
6.930556
  31
0.000000
  0
LINE
  8
0
  10
-71.316162
  20
6.930556
  30
0.000000
  11
-71.403283
  21
7.017677
  31
0.000000
  0
LINE
  8
0
  10
-71.403283
  20
7.017677
  30
0.000000
  11
-71.316162
  21
7.104798
  31
0.000000
  0
LINE
  8
0
  10
-68.354040
  20
8.760101
  30
0.000000
  11
-68.179798
  21
8.760101
  31
0.000000
  0
LINE
  8
0
  10
-68.179798
  20
8.760101
  30
0.000000
  11
-67.918434
  21
8.672980
  31
0.000000
  0
LINE
  8
0
  10
-67.918434
  20
8.672980
  30
0.000000
  11
-67.744192
  21
8.411616
  31
0.000000
  0
LINE
  8
0
  10
-67.744192
  20
8.411616
  30
0.000000
  11
-67.657071
  21
7.976010
  31
0.000000
  0
LINE
  8
0
  10
-67.657071
  20
7.976010
  30
0.000000
  11
-67.657071
  21
7.714646
  31
0.000000
  0
LINE
  8
0
  10
-67.657071
  20
7.714646
  30
0.000000
  11
-67.744192
  21
7.279040
  31
0.000000
  0
LINE
  8
0
  10
-67.744192
  20
7.279040
  30
0.000000
  11
-67.918434
  21
7.017677
  31
0.000000
  0
LINE
  8
0
  10
-67.918434
  20
7.017677
  30
0.000000
  11
-68.179798
  21
6.930556
  31
0.000000
  0
LINE
  8
0
  10
-68.179798
  20
6.930556
  30
0.000000
  11
-68.354040
  21
6.930556
  31
0.000000
  0
LINE
  8
0
  10
-68.354040
  20
6.930556
  30
0.000000
  11
-68.615404
  21
7.017677
  31
0.000000
  0
LINE
  8
0
  10
-68.615404
  20
7.017677
  30
0.000000
  11
-68.789646
  21
7.279040
  31
0.000000
  0
LINE
  8
0
  10
-68.789646
  20
7.279040
  30
0.000000
  11
-68.876768
  21
7.714646
  31
0.000000
  0
LINE
  8
0
  10
-68.876768
  20
7.714646
  30
0.000000
  11
-68.876768
  21
7.976010
  31
0.000000
  0
LINE
  8
0
  10
-68.876768
  20
7.976010
  30
0.000000
  11
-68.789646
  21
8.411616
  31
0.000000
  0
LINE
  8
0
  10
-68.789646
  20
8.411616
  30
0.000000
  11
-68.615404
  21
8.672980
  31
0.000000
  0
LINE
  8
0
  10
-68.615404
  20
8.672980
  30
0.000000
  11
-68.354040
  21
8.760101
  31
0.000000
  0
LINE
  8
0
  10
-74.782071
  20
8.597222
  30
0.000000
  11
-74.365404
  21
8.485577
  31
0.000000
  0
LINE
  8
0
  10
-74.365404
  20
8.485577
  30
0.000000
  11
-74.060383
  21
8.180556
  31
0.000000
  0
LINE
  8
0
  10
-74.060383
  20
8.180556
  30
0.000000
  11
-73.948737
  21
7.763889
  31
0.000000
  0
LINE
  8
0
  10
-73.948737
  20
7.763889
  30
0.000000
  11
-74.060383
  21
7.347222
  31
0.000000
  0
LINE
  8
0
  10
-74.060383
  20
7.347222
  30
0.000000
  11
-74.365404
  21
7.042201
  31
0.000000
  0
LINE
  8
0
  10
-74.365404
  20
7.042201
  30
0.000000
  11
-74.782071
  21
6.930556
  31
0.000000
  0
LINE
  8
0
  10
-74.782071
  20
6.930556
  30
0.000000
  11
-75.198737
  21
7.042201
  31
0.000000
  0
LINE
  8
0
  10
-75.198737
  20
7.042201
  30
0.000000
  11
-75.503759
  21
7.347222
  31
0.000000
  0
LINE
  8
0
  10
-75.503759
  20
7.347222
  30
0.000000
  11
-75.615404
  21
7.763889
  31
0.000000
  0
LINE
  8
0
  10
-75.615404
  20
7.763889
  30
0.000000
  11
-75.503759
  21
8.180556
  31
0.000000
  0
LINE
  8
0
  10
-75.503759
  20
8.180556
  30
0.000000
  11
-75.198737
  21
8.485577
  31
0.000000
  0
LINE
  8
0
  10
-75.198737
  20
8.485577
  30
0.000000
  11
-74.782071
  21
8.597222
  31
0.000000
  0
LINE
  8
0
  10
-66.533333
  20
-26.666667
  30
0.000000
  11
-66.533333
  21
-28.666667
  31
0.000000
  0
LINE
  8
0
  10
-66.533333
  20
-28.666667
  30
0.000000
  11
-68.533333
  21
-28.666667
  31
0.000000
  0
LINE
  8
0
  10
-68.533333
  20
-28.666667
  30
0.000000
  11
-68.533333
  21
-26.666667
  31
0.000000
  0
LINE
  8
0
  10
-68.533333
  20
-26.666667
  30
0.000000
  11
-66.533333
  21
-26.666667
  31
0.000000
  0
LINE
  8
0
  10
83.466667
  20
13.333333
  30
0.000000
  11
83.466667
  21
11.333333
  31
0.000000
  0
LINE
  8
0
  10
83.466667
  20
11.333333
  30
0.000000
  11
81.466667
  21
11.333333
  31
0.000000
  0
LINE
  8
0
  10
81.466667
  20
11.333333
  30
0.000000
  11
81.466667
  21
13.333333
  31
0.000000
  0
LINE
  8
0
  10
81.466667
  20
13.333333
  30
0.000000
  11
83.466667
  21
13.333333
  31
0.000000
  0
LINE
  8
0
  10
83.466667
  20
-26.666667
  30
0.000000
  11
83.466667
  21
-28.666667
  31
0.000000
  0
LINE
  8
0
  10
83.466667
  20
-28.666667
  30
0.000000
  11
81.466667
  21
-28.666667
  31
0.000000
  0
LINE
  8
0
  10
81.466667
  20
-28.666667
  30
0.000000
  11
81.466667
  21
-26.666667
  31
0.000000
  0
LINE
  8
0
  10
81.466667
  20
-26.666667
  30
0.000000
  11
83.466667
  21
-26.666667
  31
0.000000
  0
LINE
  8
0
  10
-50.127273
  20
-21.995455
  30
0.000000
  11
-49.953030
  21
-21.995455
  31
0.000000
  0
LINE
  8
0
  10
-49.953030
  20
-21.995455
  30
0.000000
  11
-49.691667
  21
-22.082576
  31
0.000000
  0
LINE
  8
0
  10
-49.691667
  20
-22.082576
  30
0.000000
  11
-49.517424
  21
-22.343939
  31
0.000000
  0
LINE
  8
0
  10
-49.517424
  20
-22.343939
  30
0.000000
  11
-49.430303
  21
-22.779545
  31
0.000000
  0
LINE
  8
0
  10
-49.430303
  20
-22.779545
  30
0.000000
  11
-49.430303
  21
-23.040909
  31
0.000000
  0
LINE
  8
0
  10
-49.430303
  20
-23.040909
  30
0.000000
  11
-49.517424
  21
-23.476515
  31
0.000000
  0
LINE
  8
0
  10
-49.517424
  20
-23.476515
  30
0.000000
  11
-49.691667
  21
-23.737879
  31
0.000000
  0
LINE
  8
0
  10
-49.691667
  20
-23.737879
  30
0.000000
  11
-49.953030
  21
-23.825000
  31
0.000000
  0
LINE
  8
0
  10
-49.953030
  20
-23.825000
  30
0.000000
  11
-50.127273
  21
-23.825000
  31
0.000000
  0
LINE
  8
0
  10
-50.127273
  20
-23.825000
  30
0.000000
  11
-50.388636
  21
-23.737879
  31
0.000000
  0
LINE
  8
0
  10
-50.388636
  20
-23.737879
  30
0.000000
  11
-50.562879
  21
-23.476515
  31
0.000000
  0
LINE
  8
0
  10
-50.562879
  20
-23.476515
  30
0.000000
  11
-50.650000
  21
-23.040909
  31
0.000000
  0
LINE
  8
0
  10
-50.650000
  20
-23.040909
  30
0.000000
  11
-50.650000
  21
-22.779545
  31
0.000000
  0
LINE
  8
0
  10
-50.650000
  20
-22.779545
  30
0.000000
  11
-50.562879
  21
-22.343939
  31
0.000000
  0
LINE
  8
0
  10
-50.562879
  20
-22.343939
  30
0.000000
  11
-50.388636
  21
-22.082576
  31
0.000000
  0
LINE
  8
0
  10
-50.388636
  20
-22.082576
  30
0.000000
  11
-50.127273
  21
-21.995455
  31
0.000000
  0
LINE
  8
0
  10
-48.733333
  20
-23.650758
  30
0.000000
  11
-48.646212
  21
-23.737879
  31
0.000000
  0
LINE
  8
0
  10
-48.646212
  20
-23.737879
  30
0.000000
  11
-48.733333
  21
-23.825000
  31
0.000000
  0
LINE
  8
0
  10
-48.733333
  20
-23.825000
  30
0.000000
  11
-48.820455
  21
-23.737879
  31
0.000000
  0
LINE
  8
0
  10
-48.820455
  20
-23.737879
  30
0.000000
  11
-48.733333
  21
-23.650758
  31
0.000000
  0
LINE
  8
0
  10
-47.513636
  20
-21.995455
  30
0.000000
  11
-47.339394
  21
-21.995455
  31
0.000000
  0
LINE
  8
0
  10
-47.339394
  20
-21.995455
  30
0.000000
  11
-47.078030
  21
-22.082576
  31
0.000000
  0
LINE
  8
0
  10
-47.078030
  20
-22.082576
  30
0.000000
  11
-46.903788
  21
-22.343939
  31
0.000000
  0
LINE
  8
0
  10
-46.903788
  20
-22.343939
  30
0.000000
  11
-46.816667
  21
-22.779545
  31
0.000000
  0
LINE
  8
0
  10
-46.816667
  20
-22.779545
  30
0.000000
  11
-46.816667
  21
-23.040909
  31
0.000000
  0
LINE
  8
0
  10
-46.816667
  20
-23.040909
  30
0.000000
  11
-46.903788
  21
-23.476515
  31
0.000000
  0
LINE
  8
0
  10
-46.903788
  20
-23.476515
  30
0.000000
  11
-47.078030
  21
-23.737879
  31
0.000000
  0
LINE
  8
0
  10
-47.078030
  20
-23.737879
  30
0.000000
  11
-47.339394
  21
-23.825000
  31
0.000000
  0
LINE
  8
0
  10
-47.339394
  20
-23.825000
  30
0.000000
  11
-47.513636
  21
-23.825000
  31
0.000000
  0
LINE
  8
0
  10
-47.513636
  20
-23.825000
  30
0.000000
  11
-47.775000
  21
-23.737879
  31
0.000000
  0
LINE
  8
0
  10
-47.775000
  20
-23.737879
  30
0.000000
  11
-47.949242
  21
-23.476515
  31
0.000000
  0
LINE
  8
0
  10
-47.949242
  20
-23.476515
  30
0.000000
  11
-48.036364
  21
-23.040909
  31
0.000000
  0
LINE
  8
0
  10
-48.036364
  20
-23.040909
  30
0.000000
  11
-48.036364
  21
-22.779545
  31
0.000000
  0
LINE
  8
0
  10
-48.036364
  20
-22.779545
  30
0.000000
  11
-47.949242
  21
-22.343939
  31
0.000000
  0
LINE
  8
0
  10
-47.949242
  20
-22.343939
  30
0.000000
  11
-47.775000
  21
-22.082576
  31
0.000000
  0
LINE
  8
0
  10
-47.775000
  20
-22.082576
  30
0.000000
  11
-47.513636
  21
-21.995455
  31
0.000000
  0
LINE
  8
0
  10
-45.771212
  20
-21.995455
  30
0.000000
  11
-45.596970
  21
-21.995455
  31
0.000000
  0
LINE
  8
0
  10
-45.596970
  20
-21.995455
  30
0.000000
  11
-45.335606
  21
-22.082576
  31
0.000000
  0
LINE
  8
0
  10
-45.335606
  20
-22.082576
  30
0.000000
  11
-45.161364
  21
-22.343939
  31
0.000000
  0
LINE
  8
0
  10
-45.161364
  20
-22.343939
  30
0.000000
  11
-45.074242
  21
-22.779545
  31
0.000000
  0
LINE
  8
0
  10
-45.074242
  20
-22.779545
  30
0.000000
  11
-45.074242
  21
-23.040909
  31
0.000000
  0
LINE
  8
0
  10
-45.074242
  20
-23.040909
  30
0.000000
  11
-45.161364
  21
-23.476515
  31
0.000000
  0
LINE
  8
0
  10
-45.161364
  20
-23.476515
  30
0.000000
  11
-45.335606
  21
-23.737879
  31
0.000000
  0
LINE
  8
0
  10
-45.335606
  20
-23.737879
  30
0.000000
  11
-45.596970
  21
-23.825000
  31
0.000000
  0
LINE
  8
0
  10
-45.596970
  20
-23.825000
  30
0.000000
  11
-45.771212
  21
-23.825000
  31
0.000000
  0
LINE
  8
0
  10
-45.771212
  20
-23.825000
  30
0.000000
  11
-46.032576
  21
-23.737879
  31
0.000000
  0
LINE
  8
0
  10
-46.032576
  20
-23.737879
  30
0.000000
  11
-46.206818
  21
-23.476515
  31
0.000000
  0
LINE
  8
0
  10
-46.206818
  20
-23.476515
  30
0.000000
  11
-46.293939
  21
-23.040909
  31
0.000000
  0
LINE
  8
0
  10
-46.293939
  20
-23.040909
  30
0.000000
  11
-46.293939
  21
-22.779545
  31
0.000000
  0
LINE
  8
0
  10
-46.293939
  20
-22.779545
  30
0.000000
  11
-46.206818
  21
-22.343939
  31
0.000000
  0
LINE
  8
0
  10
-46.206818
  20
-22.343939
  30
0.000000
  11
-46.032576
  21
-22.082576
  31
0.000000
  0
LINE
  8
0
  10
-46.032576
  20
-22.082576
  30
0.000000
  11
-45.771212
  21
-21.995455
  31
0.000000
  0
LINE
  8
0
  10
8.466667
  20
-26.666667
  30
0.000000
  11
8.466667
  21
-28.666667
  31
0.000000
  0
LINE
  8
0
  10
8.466667
  20
-28.666667
  30
0.000000
  11
6.466667
  21
-28.666667
  31
0.000000
  0
LINE
  8
0
  10
6.466667
  20
-28.666667
  30
0.000000
  11
6.466667
  21
-26.666667
  31
0.000000
  0
LINE
  8
0
  10
6.466667
  20
-26.666667
  30
0.000000
  11
8.466667
  21
-26.666667
  31
0.000000
  0
LINE
  8
0
  10
-19.461813
  20
-16.666667
  30
0.000000
  11
-19.461813
  21
-18.666667
  31
0.000000
  0
LINE
  8
0
  10
-19.461813
  20
-18.666667
  30
0.000000
  11
-21.461813
  21
-18.666667
  31
0.000000
  0
LINE
  8
0
  10
-21.461813
  20
-18.666667
  30
0.000000
  11
-21.461813
  21
-16.666667
  31
0.000000
  0
LINE
  8
0
  10
-21.461813
  20
-16.666667
  30
0.000000
  11
-19.461813
  21
-16.666667
  31
0.000000
  0
LINE
  8
0
  10
8.466667
  20
-16.666667
  30
0.000000
  11
8.466667
  21
-18.666667
  31
0.000000
  0
LINE
  8
0
  10
8.466667
  20
-18.666667
  30
0.000000
  11
6.466667
  21
-18.666667
  31
0.000000
  0
LINE
  8
0
  10
6.466667
  20
-18.666667
  30
0.000000
  11
6.466667
  21
-16.666667
  31
0.000000
  0
LINE
  8
0
  10
6.466667
  20
-16.666667
  30
0.000000
  11
8.466667
  21
-16.666667
  31
0.000000
  0
LINE
  8
0
  10
41.584541
  20
-22.450758
  30
0.000000
  11
41.671662
  21
-22.537879
  31
0.000000
  0
LINE
  8
0
  10
41.671662
  20
-22.537879
  30
0.000000
  11
41.584541
  21
-22.625000
  31
0.000000
  0
LINE
  8
0
  10
41.584541
  20
-22.625000
  30
0.000000
  11
41.497419
  21
-22.537879
  31
0.000000
  0
LINE
  8
0
  10
41.497419
  20
-22.537879
  30
0.000000
  11
41.584541
  21
-22.450758
  31
0.000000
  0
LINE
  8
0
  10
42.804238
  20
-20.795455
  30
0.000000
  11
42.978480
  21
-20.795455
  31
0.000000
  0
LINE
  8
0
  10
42.978480
  20
-20.795455
  30
0.000000
  11
43.239844
  21
-20.882576
  31
0.000000
  0
LINE
  8
0
  10
43.239844
  20
-20.882576
  30
0.000000
  11
43.414086
  21
-21.143939
  31
0.000000
  0
LINE
  8
0
  10
43.414086
  20
-21.143939
  30
0.000000
  11
43.501207
  21
-21.579545
  31
0.000000
  0
LINE
  8
0
  10
43.501207
  20
-21.579545
  30
0.000000
  11
43.501207
  21
-21.840909
  31
0.000000
  0
LINE
  8
0
  10
43.501207
  20
-21.840909
  30
0.000000
  11
43.414086
  21
-22.276515
  31
0.000000
  0
LINE
  8
0
  10
43.414086
  20
-22.276515
  30
0.000000
  11
43.239844
  21
-22.537879
  31
0.000000
  0
LINE
  8
0
  10
43.239844
  20
-22.537879
  30
0.000000
  11
42.978480
  21
-22.625000
  31
0.000000
  0
LINE
  8
0
  10
42.978480
  20
-22.625000
  30
0.000000
  11
42.804238
  21
-22.625000
  31
0.000000
  0
LINE
  8
0
  10
42.804238
  20
-22.625000
  30
0.000000
  11
42.542874
  21
-22.537879
  31
0.000000
  0
LINE
  8
0
  10
42.542874
  20
-22.537879
  30
0.000000
  11
42.368632
  21
-22.276515
  31
0.000000
  0
LINE
  8
0
  10
42.368632
  20
-22.276515
  30
0.000000
  11
42.281510
  21
-21.840909
  31
0.000000
  0
LINE
  8
0
  10
42.281510
  20
-21.840909
  30
0.000000
  11
42.281510
  21
-21.579545
  31
0.000000
  0
LINE
  8
0
  10
42.281510
  20
-21.579545
  30
0.000000
  11
42.368632
  21
-21.143939
  31
0.000000
  0
LINE
  8
0
  10
42.368632
  20
-21.143939
  30
0.000000
  11
42.542874
  21
-20.882576
  31
0.000000
  0
LINE
  8
0
  10
42.542874
  20
-20.882576
  30
0.000000
  11
42.804238
  21
-20.795455
  31
0.000000
  0
LINE
  8
0
  10
44.546662
  20
-20.795455
  30
0.000000
  11
44.720904
  21
-20.795455
  31
0.000000
  0
LINE
  8
0
  10
44.720904
  20
-20.795455
  30
0.000000
  11
44.982268
  21
-20.882576
  31
0.000000
  0
LINE
  8
0
  10
44.982268
  20
-20.882576
  30
0.000000
  11
45.156510
  21
-21.143939
  31
0.000000
  0
LINE
  8
0
  10
45.156510
  20
-21.143939
  30
0.000000
  11
45.243632
  21
-21.579545
  31
0.000000
  0
LINE
  8
0
  10
45.243632
  20
-21.579545
  30
0.000000
  11
45.243632
  21
-21.840909
  31
0.000000
  0
LINE
  8
0
  10
45.243632
  20
-21.840909
  30
0.000000
  11
45.156510
  21
-22.276515
  31
0.000000
  0
LINE
  8
0
  10
45.156510
  20
-22.276515
  30
0.000000
  11
44.982268
  21
-22.537879
  31
0.000000
  0
LINE
  8
0
  10
44.982268
  20
-22.537879
  30
0.000000
  11
44.720904
  21
-22.625000
  31
0.000000
  0
LINE
  8
0
  10
44.720904
  20
-22.625000
  30
0.000000
  11
44.546662
  21
-22.625000
  31
0.000000
  0
LINE
  8
0
  10
44.546662
  20
-22.625000
  30
0.000000
  11
44.285298
  21
-22.537879
  31
0.000000
  0
LINE
  8
0
  10
44.285298
  20
-22.537879
  30
0.000000
  11
44.111056
  21
-22.276515
  31
0.000000
  0
LINE
  8
0
  10
44.111056
  20
-22.276515
  30
0.000000
  11
44.023935
  21
-21.840909
  31
0.000000
  0
LINE
  8
0
  10
44.023935
  20
-21.840909
  30
0.000000
  11
44.023935
  21
-21.579545
  31
0.000000
  0
LINE
  8
0
  10
44.023935
  20
-21.579545
  30
0.000000
  11
44.111056
  21
-21.143939
  31
0.000000
  0
LINE
  8
0
  10
44.111056
  20
-21.143939
  30
0.000000
  11
44.285298
  21
-20.882576
  31
0.000000
  0
LINE
  8
0
  10
44.285298
  20
-20.882576
  30
0.000000
  11
44.546662
  21
-20.795455
  31
0.000000
  0
LINE
  8
0
  10
38.118632
  20
-20.958333
  30
0.000000
  11
38.535298
  21
-21.069979
  31
0.000000
  0
LINE
  8
0
  10
38.535298
  20
-21.069979
  30
0.000000
  11
38.840319
  21
-21.375000
  31
0.000000
  0
LINE
  8
0
  10
38.840319
  20
-21.375000
  30
0.000000
  11
38.951965
  21
-21.791667
  31
0.000000
  0
LINE
  8
0
  10
38.951965
  20
-21.791667
  30
0.000000
  11
38.840319
  21
-22.208333
  31
0.000000
  0
LINE
  8
0
  10
38.840319
  20
-22.208333
  30
0.000000
  11
38.535298
  21
-22.513355
  31
0.000000
  0
LINE
  8
0
  10
38.535298
  20
-22.513355
  30
0.000000
  11
38.118632
  21
-22.625000
  31
0.000000
  0
LINE
  8
0
  10
38.118632
  20
-22.625000
  30
0.000000
  11
37.701965
  21
-22.513355
  31
0.000000
  0
LINE
  8
0
  10
37.701965
  20
-22.513355
  30
0.000000
  11
37.396944
  21
-22.208333
  31
0.000000
  0
LINE
  8
0
  10
37.396944
  20
-22.208333
  30
0.000000
  11
37.285298
  21
-21.791667
  31
0.000000
  0
LINE
  8
0
  10
37.285298
  20
-21.791667
  30
0.000000
  11
37.396944
  21
-21.375000
  31
0.000000
  0
LINE
  8
0
  10
37.396944
  20
-21.375000
  30
0.000000
  11
37.701965
  21
-21.069979
  31
0.000000
  0
LINE
  8
0
  10
37.701965
  20
-21.069979
  30
0.000000
  11
38.118632
  21
-20.958333
  31
0.000000
  0
LINE
  8
0
  10
8.466667
  20
-16.666667
  30
0.000000
  11
8.466667
  21
-18.666667
  31
0.000000
  0
LINE
  8
0
  10
8.466667
  20
-18.666667
  30
0.000000
  11
6.466667
  21
-18.666667
  31
0.000000
  0
LINE
  8
0
  10
6.466667
  20
-18.666667
  30
0.000000
  11
6.466667
  21
-16.666667
  31
0.000000
  0
LINE
  8
0
  10
6.466667
  20
-16.666667
  30
0.000000
  11
8.466667
  21
-16.666667
  31
0.000000
  0
LINE
  8
0
  10
73.466667
  20
-15.166667
  30
0.000000
  11
73.466667
  21
-17.166667
  31
0.000000
  0
LINE
  8
0
  10
73.466667
  20
-17.166667
  30
0.000000
  11
71.466667
  21
-17.166667
  31
0.000000
  0
LINE
  8
0
  10
71.466667
  20
-17.166667
  30
0.000000
  11
71.466667
  21
-15.166667
  31
0.000000
  0
LINE
  8
0
  10
71.466667
  20
-15.166667
  30
0.000000
  11
73.466667
  21
-15.166667
  31
0.000000
  0
LINE
  8
0
  10
71.966667
  20
-16.666667
  30
0.000000
  11
71.966667
  21
-18.666667
  31
0.000000
  0
LINE
  8
0
  10
71.966667
  20
-18.666667
  30
0.000000
  11
69.966667
  21
-18.666667
  31
0.000000
  0
LINE
  8
0
  10
69.966667
  20
-18.666667
  30
0.000000
  11
69.966667
  21
-16.666667
  31
0.000000
  0
LINE
  8
0
  10
69.966667
  20
-16.666667
  30
0.000000
  11
71.966667
  21
-16.666667
  31
0.000000
  0
LINE
  8
0
  10
73.466667
  20
-1.818740
  30
0.000000
  11
73.466667
  21
-3.818740
  31
0.000000
  0
LINE
  8
0
  10
73.466667
  20
-3.818740
  30
0.000000
  11
71.466667
  21
-3.818740
  31
0.000000
  0
LINE
  8
0
  10
71.466667
  20
-3.818740
  30
0.000000
  11
71.466667
  21
-1.818740
  31
0.000000
  0
LINE
  8
0
  10
71.466667
  20
-1.818740
  30
0.000000
  11
73.466667
  21
-1.818740
  31
0.000000
  0
LINE
  8
0
  10
71.072727
  20
-21.795455
  30
0.000000
  11
71.246970
  21
-21.795455
  31
0.000000
  0
LINE
  8
0
  10
71.246970
  20
-21.795455
  30
0.000000
  11
71.508333
  21
-21.882576
  31
0.000000
  0
LINE
  8
0
  10
71.508333
  20
-21.882576
  30
0.000000
  11
71.682576
  21
-22.143939
  31
0.000000
  0
LINE
  8
0
  10
71.682576
  20
-22.143939
  30
0.000000
  11
71.769697
  21
-22.579545
  31
0.000000
  0
LINE
  8
0
  10
71.769697
  20
-22.579545
  30
0.000000
  11
71.769697
  21
-22.840909
  31
0.000000
  0
LINE
  8
0
  10
71.769697
  20
-22.840909
  30
0.000000
  11
71.682576
  21
-23.276515
  31
0.000000
  0
LINE
  8
0
  10
71.682576
  20
-23.276515
  30
0.000000
  11
71.508333
  21
-23.537879
  31
0.000000
  0
LINE
  8
0
  10
71.508333
  20
-23.537879
  30
0.000000
  11
71.246970
  21
-23.625000
  31
0.000000
  0
LINE
  8
0
  10
71.246970
  20
-23.625000
  30
0.000000
  11
71.072727
  21
-23.625000
  31
0.000000
  0
LINE
  8
0
  10
71.072727
  20
-23.625000
  30
0.000000
  11
70.811364
  21
-23.537879
  31
0.000000
  0
LINE
  8
0
  10
70.811364
  20
-23.537879
  30
0.000000
  11
70.637121
  21
-23.276515
  31
0.000000
  0
LINE
  8
0
  10
70.637121
  20
-23.276515
  30
0.000000
  11
70.550000
  21
-22.840909
  31
0.000000
  0
LINE
  8
0
  10
70.550000
  20
-22.840909
  30
0.000000
  11
70.550000
  21
-22.579545
  31
0.000000
  0
LINE
  8
0
  10
70.550000
  20
-22.579545
  30
0.000000
  11
70.637121
  21
-22.143939
  31
0.000000
  0
LINE
  8
0
  10
70.637121
  20
-22.143939
  30
0.000000
  11
70.811364
  21
-21.882576
  31
0.000000
  0
LINE
  8
0
  10
70.811364
  20
-21.882576
  30
0.000000
  11
71.072727
  21
-21.795455
  31
0.000000
  0
LINE
  8
0
  10
72.466667
  20
-23.450758
  30
0.000000
  11
72.553788
  21
-23.537879
  31
0.000000
  0
LINE
  8
0
  10
72.553788
  20
-23.537879
  30
0.000000
  11
72.466667
  21
-23.625000
  31
0.000000
  0
LINE
  8
0
  10
72.466667
  20
-23.625000
  30
0.000000
  11
72.379545
  21
-23.537879
  31
0.000000
  0
LINE
  8
0
  10
72.379545
  20
-23.537879
  30
0.000000
  11
72.466667
  21
-23.450758
  31
0.000000
  0
LINE
  8
0
  10
73.686364
  20
-21.795455
  30
0.000000
  11
73.860606
  21
-21.795455
  31
0.000000
  0
LINE
  8
0
  10
73.860606
  20
-21.795455
  30
0.000000
  11
74.121970
  21
-21.882576
  31
0.000000
  0
LINE
  8
0
  10
74.121970
  20
-21.882576
  30
0.000000
  11
74.296212
  21
-22.143939
  31
0.000000
  0
LINE
  8
0
  10
74.296212
  20
-22.143939
  30
0.000000
  11
74.383333
  21
-22.579545
  31
0.000000
  0
LINE
  8
0
  10
74.383333
  20
-22.579545
  30
0.000000
  11
74.383333
  21
-22.840909
  31
0.000000
  0
LINE
  8
0
  10
74.383333
  20
-22.840909
  30
0.000000
  11
74.296212
  21
-23.276515
  31
0.000000
  0
LINE
  8
0
  10
74.296212
  20
-23.276515
  30
0.000000
  11
74.121970
  21
-23.537879
  31
0.000000
  0
LINE
  8
0
  10
74.121970
  20
-23.537879
  30
0.000000
  11
73.860606
  21
-23.625000
  31
0.000000
  0
LINE
  8
0
  10
73.860606
  20
-23.625000
  30
0.000000
  11
73.686364
  21
-23.625000
  31
0.000000
  0
LINE
  8
0
  10
73.686364
  20
-23.625000
  30
0.000000
  11
73.425000
  21
-23.537879
  31
0.000000
  0
LINE
  8
0
  10
73.425000
  20
-23.537879
  30
0.000000
  11
73.250758
  21
-23.276515
  31
0.000000
  0
LINE
  8
0
  10
73.250758
  20
-23.276515
  30
0.000000
  11
73.163636
  21
-22.840909
  31
0.000000
  0
LINE
  8
0
  10
73.163636
  20
-22.840909
  30
0.000000
  11
73.163636
  21
-22.579545
  31
0.000000
  0
LINE
  8
0
  10
73.163636
  20
-22.579545
  30
0.000000
  11
73.250758
  21
-22.143939
  31
0.000000
  0
LINE
  8
0
  10
73.250758
  20
-22.143939
  30
0.000000
  11
73.425000
  21
-21.882576
  31
0.000000
  0
LINE
  8
0
  10
73.425000
  20
-21.882576
  30
0.000000
  11
73.686364
  21
-21.795455
  31
0.000000
  0
LINE
  8
0
  10
75.428788
  20
-21.795455
  30
0.000000
  11
75.603030
  21
-21.795455
  31
0.000000
  0
LINE
  8
0
  10
75.603030
  20
-21.795455
  30
0.000000
  11
75.864394
  21
-21.882576
  31
0.000000
  0
LINE
  8
0
  10
75.864394
  20
-21.882576
  30
0.000000
  11
76.038636
  21
-22.143939
  31
0.000000
  0
LINE
  8
0
  10
76.038636
  20
-22.143939
  30
0.000000
  11
76.125758
  21
-22.579545
  31
0.000000
  0
LINE
  8
0
  10
76.125758
  20
-22.579545
  30
0.000000
  11
76.125758
  21
-22.840909
  31
0.000000
  0
LINE
  8
0
  10
76.125758
  20
-22.840909
  30
0.000000
  11
76.038636
  21
-23.276515
  31
0.000000
  0
LINE
  8
0
  10
76.038636
  20
-23.276515
  30
0.000000
  11
75.864394
  21
-23.537879
  31
0.000000
  0
LINE
  8
0
  10
75.864394
  20
-23.537879
  30
0.000000
  11
75.603030
  21
-23.625000
  31
0.000000
  0
LINE
  8
0
  10
75.603030
  20
-23.625000
  30
0.000000
  11
75.428788
  21
-23.625000
  31
0.000000
  0
LINE
  8
0
  10
75.428788
  20
-23.625000
  30
0.000000
  11
75.167424
  21
-23.537879
  31
0.000000
  0
LINE
  8
0
  10
75.167424
  20
-23.537879
  30
0.000000
  11
74.993182
  21
-23.276515
  31
0.000000
  0
LINE
  8
0
  10
74.993182
  20
-23.276515
  30
0.000000
  11
74.906061
  21
-22.840909
  31
0.000000
  0
LINE
  8
0
  10
74.906061
  20
-22.840909
  30
0.000000
  11
74.906061
  21
-22.579545
  31
0.000000
  0
LINE
  8
0
  10
74.906061
  20
-22.579545
  30
0.000000
  11
74.993182
  21
-22.143939
  31
0.000000
  0
LINE
  8
0
  10
74.993182
  20
-22.143939
  30
0.000000
  11
75.167424
  21
-21.882576
  31
0.000000
  0
LINE
  8
0
  10
75.167424
  20
-21.882576
  30
0.000000
  11
75.428788
  21
-21.795455
  31
0.000000
  0
LINE
  8
0
  10
-5.929855
  20
-10.674655
  30
0.000000
  11
-5.755612
  21
-10.674655
  31
0.000000
  0
LINE
  8
0
  10
-5.755612
  20
-10.674655
  30
0.000000
  11
-5.494248
  21
-10.761776
  31
0.000000
  0
LINE
  8
0
  10
-5.494248
  20
-10.761776
  30
0.000000
  11
-5.320006
  21
-11.023139
  31
0.000000
  0
LINE
  8
0
  10
-5.320006
  20
-11.023139
  30
0.000000
  11
-5.232885
  21
-11.458745
  31
0.000000
  0
LINE
  8
0
  10
-5.232885
  20
-11.458745
  30
0.000000
  11
-5.232885
  21
-11.720109
  31
0.000000
  0
LINE
  8
0
  10
-5.232885
  20
-11.720109
  30
0.000000
  11
-5.320006
  21
-12.155715
  31
0.000000
  0
LINE
  8
0
  10
-5.320006
  20
-12.155715
  30
0.000000
  11
-5.494248
  21
-12.417079
  31
0.000000
  0
LINE
  8
0
  10
-5.494248
  20
-12.417079
  30
0.000000
  11
-5.755612
  21
-12.504200
  31
0.000000
  0
LINE
  8
0
  10
-5.755612
  20
-12.504200
  30
0.000000
  11
-5.929855
  21
-12.504200
  31
0.000000
  0
LINE
  8
0
  10
-5.929855
  20
-12.504200
  30
0.000000
  11
-6.191218
  21
-12.417079
  31
0.000000
  0
LINE
  8
0
  10
-6.191218
  20
-12.417079
  30
0.000000
  11
-6.365461
  21
-12.155715
  31
0.000000
  0
LINE
  8
0
  10
-6.365461
  20
-12.155715
  30
0.000000
  11
-6.452582
  21
-11.720109
  31
0.000000
  0
LINE
  8
0
  10
-6.452582
  20
-11.720109
  30
0.000000
  11
-6.452582
  21
-11.458745
  31
0.000000
  0
LINE
  8
0
  10
-6.452582
  20
-11.458745
  30
0.000000
  11
-6.365461
  21
-11.023139
  31
0.000000
  0
LINE
  8
0
  10
-6.365461
  20
-11.023139
  30
0.000000
  11
-6.191218
  21
-10.761776
  31
0.000000
  0
LINE
  8
0
  10
-6.191218
  20
-10.761776
  30
0.000000
  11
-5.929855
  21
-10.674655
  31
0.000000
  0
LINE
  8
0
  10
-4.535915
  20
-12.329958
  30
0.000000
  11
-4.448794
  21
-12.417079
  31
0.000000
  0
LINE
  8
0
  10
-4.448794
  20
-12.417079
  30
0.000000
  11
-4.535915
  21
-12.504200
  31
0.000000
  0
LINE
  8
0
  10
-4.535915
  20
-12.504200
  30
0.000000
  11
-4.623036
  21
-12.417079
  31
0.000000
  0
LINE
  8
0
  10
-4.623036
  20
-12.417079
  30
0.000000
  11
-4.535915
  21
-12.329958
  31
0.000000
  0
LINE
  8
0
  10
-3.316218
  20
-10.674655
  30
0.000000
  11
-3.141976
  21
-10.674655
  31
0.000000
  0
LINE
  8
0
  10
-3.141976
  20
-10.674655
  30
0.000000
  11
-2.880612
  21
-10.761776
  31
0.000000
  0
LINE
  8
0
  10
-2.880612
  20
-10.761776
  30
0.000000
  11
-2.706370
  21
-11.023139
  31
0.000000
  0
LINE
  8
0
  10
-2.706370
  20
-11.023139
  30
0.000000
  11
-2.619248
  21
-11.458745
  31
0.000000
  0
LINE
  8
0
  10
-2.619248
  20
-11.458745
  30
0.000000
  11
-2.619248
  21
-11.720109
  31
0.000000
  0
LINE
  8
0
  10
-2.619248
  20
-11.720109
  30
0.000000
  11
-2.706370
  21
-12.155715
  31
0.000000
  0
LINE
  8
0
  10
-2.706370
  20
-12.155715
  30
0.000000
  11
-2.880612
  21
-12.417079
  31
0.000000
  0
LINE
  8
0
  10
-2.880612
  20
-12.417079
  30
0.000000
  11
-3.141976
  21
-12.504200
  31
0.000000
  0
LINE
  8
0
  10
-3.141976
  20
-12.504200
  30
0.000000
  11
-3.316218
  21
-12.504200
  31
0.000000
  0
LINE
  8
0
  10
-3.316218
  20
-12.504200
  30
0.000000
  11
-3.577582
  21
-12.417079
  31
0.000000
  0
LINE
  8
0
  10
-3.577582
  20
-12.417079
  30
0.000000
  11
-3.751824
  21
-12.155715
  31
0.000000
  0
LINE
  8
0
  10
-3.751824
  20
-12.155715
  30
0.000000
  11
-3.838945
  21
-11.720109
  31
0.000000
  0
LINE
  8
0
  10
-3.838945
  20
-11.720109
  30
0.000000
  11
-3.838945
  21
-11.458745
  31
0.000000
  0
LINE
  8
0
  10
-3.838945
  20
-11.458745
  30
0.000000
  11
-3.751824
  21
-11.023139
  31
0.000000
  0
LINE
  8
0
  10
-3.751824
  20
-11.023139
  30
0.000000
  11
-3.577582
  21
-10.761776
  31
0.000000
  0
LINE
  8
0
  10
-3.577582
  20
-10.761776
  30
0.000000
  11
-3.316218
  21
-10.674655
  31
0.000000
  0
LINE
  8
0
  10
-1.573794
  20
-10.674655
  30
0.000000
  11
-1.399552
  21
-10.674655
  31
0.000000
  0
LINE
  8
0
  10
-1.399552
  20
-10.674655
  30
0.000000
  11
-1.138188
  21
-10.761776
  31
0.000000
  0
LINE
  8
0
  10
-1.138188
  20
-10.761776
  30
0.000000
  11
-0.963945
  21
-11.023139
  31
0.000000
  0
LINE
  8
0
  10
-0.963945
  20
-11.023139
  30
0.000000
  11
-0.876824
  21
-11.458745
  31
0.000000
  0
LINE
  8
0
  10
-0.876824
  20
-11.458745
  30
0.000000
  11
-0.876824
  21
-11.720109
  31
0.000000
  0
LINE
  8
0
  10
-0.876824
  20
-11.720109
  30
0.000000
  11
-0.963945
  21
-12.155715
  31
0.000000
  0
LINE
  8
0
  10
-0.963945
  20
-12.155715
  30
0.000000
  11
-1.138188
  21
-12.417079
  31
0.000000
  0
LINE
  8
0
  10
-1.138188
  20
-12.417079
  30
0.000000
  11
-1.399552
  21
-12.504200
  31
0.000000
  0
LINE
  8
0
  10
-1.399552
  20
-12.504200
  30
0.000000
  11
-1.573794
  21
-12.504200
  31
0.000000
  0
LINE
  8
0
  10
-1.573794
  20
-12.504200
  30
0.000000
  11
-1.835158
  21
-12.417079
  31
0.000000
  0
LINE
  8
0
  10
-1.835158
  20
-12.417079
  30
0.000000
  11
-2.009400
  21
-12.155715
  31
0.000000
  0
LINE
  8
0
  10
-2.009400
  20
-12.155715
  30
0.000000
  11
-2.096521
  21
-11.720109
  31
0.000000
  0
LINE
  8
0
  10
-2.096521
  20
-11.720109
  30
0.000000
  11
-2.096521
  21
-11.458745
  31
0.000000
  0
LINE
  8
0
  10
-2.096521
  20
-11.458745
  30
0.000000
  11
-2.009400
  21
-11.023139
  31
0.000000
  0
LINE
  8
0
  10
-2.009400
  20
-11.023139
  30
0.000000
  11
-1.835158
  21
-10.761776
  31
0.000000
  0
LINE
  8
0
  10
-1.835158
  20
-10.761776
  30
0.000000
  11
-1.573794
  21
-10.674655
  31
0.000000
  0
LINE
  8
0
  10
-11.486673
  20
-10.837533
  30
0.000000
  11
-11.070006
  21
-10.949179
  31
0.000000
  0
LINE
  8
0
  10
-11.070006
  20
-10.949179
  30
0.000000
  11
-10.764985
  21
-11.254200
  31
0.000000
  0
LINE
  8
0
  10
-10.764985
  20
-11.254200
  30
0.000000
  11
-10.653339
  21
-11.670867
  31
0.000000
  0
LINE
  8
0
  10
-10.653339
  20
-11.670867
  30
0.000000
  11
-10.764985
  21
-12.087533
  31
0.000000
  0
LINE
  8
0
  10
-10.764985
  20
-12.087533
  30
0.000000
  11
-11.070006
  21
-12.392555
  31
0.000000
  0
LINE
  8
0
  10
-11.070006
  20
-12.392555
  30
0.000000
  11
-11.486673
  21
-12.504200
  31
0.000000
  0
LINE
  8
0
  10
-11.486673
  20
-12.504200
  30
0.000000
  11
-11.903339
  21
-12.392555
  31
0.000000
  0
LINE
  8
0
  10
-11.903339
  20
-12.392555
  30
0.000000
  11
-12.208361
  21
-12.087533
  31
0.000000
  0
LINE
  8
0
  10
-12.208361
  20
-12.087533
  30
0.000000
  11
-12.320006
  21
-11.670867
  31
0.000000
  0
LINE
  8
0
  10
-12.320006
  20
-11.670867
  30
0.000000
  11
-12.208361
  21
-11.254200
  31
0.000000
  0
LINE
  8
0
  10
-12.208361
  20
-11.254200
  30
0.000000
  11
-11.903339
  21
-10.949179
  31
0.000000
  0
LINE
  8
0
  10
-11.903339
  20
-10.949179
  30
0.000000
  11
-11.486673
  21
-10.837533
  31
0.000000
  0
ENDSEC
  0
EOF
